Blink 182

Blink 182
Tv Ver 3 (Guitar tab)

CLEAN
-----------------------------------------------|
-----------------------------------------------|
-----------------------------------------------|
-----------------------------------------------| X2
------3----3/--------8-----8--------------|
-1-1----1/-----6-6-----6----------------------|

CLEAN
-----------------------------------------------|
-----------------------------------------------|
-----------------------------------------------|
-----------------------------------------------|
---3---3/---8--8\----3--3/---8-----8/---------15-----15\---8----8-----|
1-1---1/-6-6--6\--1-1--1/-6-6-----6-/---13-13-----13-\--6-6----6--------|

CLEAN
--------------------------------------------------------------|
---------------------------------------------------------------| -------------------------------|
---------------------------------------------------------------|
3/--x-8\--x-5/--x-8--------------------X2------------------------------|
1/--x-6\--x-3/--x-6---------------------------------------------------|

HEAVY
---------------------------------------------------------------|
---------------------------------------------------------------|
-----------------------------------------X4----------------------|
--3-333333---8-88888---------------------------------------------------------|
--3-333333---8-88888--------------------------------------------------------|
--1-111111---1-11111--------------------------------------------------------|

---------------------------------------------------------------|
---------------------------------------------------------------|
---------------------------------------------------------------|
3333333/--5555555/--777777/--8888888-------------|
3333333/--5555555/--777777/--8888888-------------|
1111111/--3333333/--555555/--6666666-------------|

OptimusPrime

Toegevoegd door OptimusPrime op zo 01 dec, 2002 8:38 am

Auteur: ?
Componist: ?
Uitgever: ?

Reacties

CommonCrawl [Bot]

Volg Muzikum