Blink 182

Blink 182
Dont Leave Me Ver 2 (Guitar tab)

Don't Leave Me by Blink 182

tabbed by james roberts
email: jroberts_1983@hotmail.com





Intro:

E------------------------------------------|
B------------------------------------------|
G------------xxxx-7---xxxx-4---7777-9999---| x2
D---xxxx-7---xxxx-7---xxxx-4---7777-9999---|
A---xxxx-7---xxxx-5---xxxx-2---5555-7777---|
E---xxxx-5---------------------------------|

Verse:

e-----------|
B-----------|
G-----------| let ring
A----7------|
E----5------|


Chorus:

e-------------------------------|
B-------------------------------|
G----------4444---7777---9999---|x4
D---7777---4444---7777---9999---|
A---7777---2222---5555---7777---|
E---5555------------------------|



Bridge: (one more time...)

e----------------------------|
B----------------------------|
G----------------------------|x8
D------------7-----------7---|
A--------7-----------7-------|
E---5------------5-----------|

OptimusPrime

Toegevoegd door OptimusPrime op zo 01 dec, 2002 8:38 am

Auteur: ?
Componist: ?
Uitgever: ?
Taal: Engels

Reacties

CommonCrawl [Bot]

Volg Muzikum