Blink 182

Blink 182
Anthem Part Two Ver 5 (Guitar tab)

blink 182
anthem 2
album: take off your pants and jacket

this song is so mad
and i think everyone should get the new album
there are 3 guitars in this song too
but i'm arranging it into two guitars

key:
*= palm mute
t=tap
/=slide
H......=hold
s=hammer on next part



guitar 1 guitar 2
e----------- e-----------------------
b----------- b---8-8--6-6--5-5--6-6--
g----------- g----5-5--5-5--5-5--5-5-
d-5-5-5-5--- d-----------------------
a-3-3-3-3--- a-----------------------
E----------- E-----------------------
*******

Guitar 1
e------------------------------------
b------------------------------------
g------------------------------------
d----2t3--2--2t3--2--2t3--2--0--0----
a--33---33-33---33-33---33-33-33-----
E------------------------------------
** ** ** ** ** ** ** **


the intro order is

guitar1, guitar2, guiatr1, guitar2, guitar1, then guitar2,
guitar 2 and 1@

play last guitars2, and 1@ three times till the interlude

just before the interlude

guitar 1
e-------------------------
b-------------------------
g-------------------------
d3333-3333----------------
a3333-3333----------------
E1111-1111----------------

Guitar 2
e-------------------------
b-------------------------
g-5555-5555---------------
d-------------------------
a-3333-5555---------------
E-------------------------


interlude

** ** ** ** ** ** ** **
b---------------------------------------------------
g-5555-------5555-------5555------5555----------5---
d-5555-3333--5555-3333--5555-3333-5555-3--------5---
a-3333-3333--3333-3333--3333-3333-3333-3--------3---
E------1111-------1111-------1111------1------------
H........
Guitar 2
e------------------ --------------------
b------------------ --------------------
g---9/10/9/55/777-- --9/10/55555555-5---
d------------------x3 ----------------5---
a---7/8-/7/33/555-- --7/8-/33333333-3---
E------------------ --------------------

verse1
(palm muted)

C A F
e-----------------------------
b-----------------------------
g-----------------------------
d-5---------------------------
a-3--------7-------3----------
E----------5-------1----------

(no guitar)

Everything has fallen to peices
Earth is dying help, help me Jesus

e--------
b--------
g-55-5---
d--------
a-33-3---
E--------
C ***************A***********F*****
we need guidence, we've been misled
C*****************A*******F*****
Young and hostile but not stupid

e-------
b-------
g--5----
d-------
a--3----
E-------

Corporate leaders, politicians
Kids can't vote, adult elect them
C A F
Laws that rule the school and workplace
C A F
Songs that caution's sixteen's unsafe


chorus
guitar 1
(play same chord through whole chorus)

e------
b------
g--5---
d------
a--3---
E------

guitar 2
C F A G
e-------------------------
b-------------------------
g---5---------------------
d---5--3---7---5----------
a---3--3---7---5----------
E------1---5---3----------

C F A G
We really need to see this through
C F A G
We never wanted to be abused
C**********F***A******G**
We'll never give up, its no use
C******************F (s)
If were fucked up, your to blame


interlude


Guitar 1
e---------------------------------------------------
b---------------------------------------------------
g-5555-------5555-------5555------5555----------5---
d-5555-3333--5555-3333--5555-3333-5555-3--------5---
a-3333-3333--3333-3333--3333-3333-3333-3--------3---
E------1111-------1111-------1111------1------------
H........
Guitar 2
e------------------ --------------------
b------------------ --------------------
g---9/10/9/55/777-- --9/10/55555555-5---
d------------------x3 ----------------5---
a---7/8-/7/33/555-- --7/8-/33333333-3---
E------------------ --------------------

verse 2

(palm muted)

C A F
e-----------------------------
b-----------------------------
g-----------------------------
d-5---------------------------
a-3--------7-------3----------
E----------5-------1----------

Let this train-wreck burn more slowly
Kids are victums in this story


b--------
g-55-5---
d--------
a-33-3---
E--------
C********************A******G*******
Drown the youth with unless warnings
C**********************A**********G*****
Teenage rules, they're fucked and boring
chorus

guitar 1
(play same chord through whole chorus)

e------
b------
g--5---
d------
a--3---
E------

guitar 2
C F A G
e-------------------------
b-------------------------
g---5---------------------
d---5--3---7---5----------
a---3--3---7---5----------
E------1---5---3----------

C F A G
We really need to see this through
C F A G
We never wanted to be abused
C**********F***A******G**
We'll never give up, its no use
C******************F (s)
If were fucked up, your to blame


bridge

everything has fallen to peices
everything has fallen to peices
everything has fallen to pieses
everything has fallen to.......

chorus

guitar 1
(play same chord through whole chorus)

e------
b------
g--5---
d------
a--3---
E------

guitar 2
C F A G
e-------------------------
b-------------------------
g---5---------------------
d---5--3---7---5----------
a---3--3---7---5----------
E------1---5---3----------

C F A G
We really need to see this through
C F A G
We never wanted to be abused
C**********F***A******G**
We'll never give up, its no use
C******************F (s)
If were fucked up, your to blame


Guitar 1
e------------------------------------
b------------------------------------
g------------------------------------
d----2t3--2--2t3--2--2t3--2--0--0----
a--33---33-33---33-33---33-33-33-----
E------------------------------------

(guitar 2 plays choruse plam muted then plays clean intro)

guitar 2

e-----------------------
b---8-8--6-6--5-5--6-6--
g----5-5--5-5--5-5--5-5-
d-----------------------
a-----------------------
E-----------------------


guitar 1 ends on C

guitar 2 ends on high f

(b--f---)







thats the song
pretty simple to play
bastered to type

and i'll give credit to my mate chris whitehall for the intro for guitar 1
and the verses

and one who thinks who can come with any faults in this song
email me on

ecca@ericsmail.com

OptimusPrime

Toegevoegd door OptimusPrime op zo 01 dec, 2002 8:38 am

Auteur: ?
Componist: ?
Uitgever: ?
Taal: Engels

Reacties

CommonCrawl [Bot]

Volg Muzikum