Blink 182

Blink 182
Stay Together For The Kids Ver 2 (Guitar tab)

_____________________________________________________
caoimhaoinsutton@hotmail.com (is my address) PLEK

http://communities.msn.com/KevsMind (is my website)
_____________________________________________________





+ BLINK 182-------------Stay Together for the Kids +



INTRO
E----------------------|----------------------------
B----------------------|----------------------------
G----------------------|----------------------------
D----0--7---0--4--0----|----0----7-----0---4--0-----
A--5--5---5------------|--4---4-----4---------------
E----------------------|----------------------------

E----------------------|----------------------------
B----------------------|----------------------------
G----------------------|----------------------------
D----0----4---4--0-----|----2--2--4--5--4---2---0---
A--2---2----2----------|--0-------------------------
E----------------------|----------------------------





VERSE
x4 x4 x4 x4
E--------|---------|---------|---------------|
B--------|---------|---------|---------------|
G------7-|-------7-|-------7-|------9------7-|
D------7-|-------7-|-------7-|------7------7-| X2
A--5-5---|---------|---0-0---|--0-0---0-0----|
E--------|----7-7--|---------|---------------|


[1] Its hard to wake up
Whe the shades have been pulled shut
This house is haunted
Its so pathetic
It makes no sense at all

Im ripe with things to say
The words rot and fall away
What stupid poem
Could fix this home
Id read it every day


[2] Their anger hurts my ears
Been runningf strong for seven years
Rather then fix the problems
They never solve them
It makes no sense at all

I see them every day
We get along so why cant they?
If this is what he wants
And its what she wants
The whys there so much pain?




Chorus
E--------------------------------------------------
B--------------------------------------------------
G----------------------------------------7---------
D--5-5-5-5-5-5-5---4-4-4-4-4-4-4---------7---------
A--5-5-5-5-5-5-5---5-5-5-5-5-5-5--(X4)---5---------
E--3-3-3-3-3-3-3---2-2-2-2-2-2-2-------------------
(G) (F#?) (D)

CHORUS
So heres you're holiday...
Hope you enjoy it this time...
You gave it all away......
It was mine

So when youre dead and gone
Will you remember this night
20 years now lost

____________________________
June 10th 20001 |
(Kev 16 Male) IRISH |
My tabs are always right |
____________________________|

OptimusPrime

Toegevoegd door OptimusPrime op zo 01 dec, 2002 8:38 am

Auteur: ?
Componist: ?
Uitgever: ?
Taal: Engels

Reacties

CommonCrawl [Bot]

Volg Muzikum