Blink 182

Blink 182
Man Overboard Ver 5 (Guitar tab)

Artist:Blink 182
Song:Man Overboard
Tabbed By: Mike Scanlon.

Hey everyone I have seen this intro soo wrong so many times,
some people go all the way down to 7 to play this, they must be
insane, and i saw someone else use powerchords, what
the heck was she thinking? anyway, i used a friends thingy for the
chords played during the song, i just fixed the intro, even he had it
wrong.
check out my site...

http://maniacmike.cjb.net
-------------------------
Email me...

maniac_mike_mp3@yahoo.com
____________________________________________________________
what we have all been waiting for!!!!
____________________________________________________________



Intro:
D------------------------------------------------------------
A------5-3-2------------5-3-2------------5-3-2--------3-2-3-2
E----3----------------3----------------3---------------------

D-------------------------
A--------5-3-2----3-2-3-2- (repeat 3 times.)
E-------3-----------------



Lyrics: Mark

G C D
so sorry it's over
X4
G C D
so sorry it's over

Lyrics for tom during the last two times

G C A
theres so much more that i wanted and
A
theres so much more that i needed and
G C A (hold)
time just movivng on and on and on, soon we'll all be gone


Guitar inturlude thing 1:

e---------------------
B---------------------
G--------------------- X4
D---------------------
A----2h3p2---2h3p2--0-
E--3------------------

Guitar inturlude thing 2:

e---------------------
B---------------------
G--------------------- X4
D-5-------------------
A----5h7p5--5h7p5---3-
E---------------------


Verse: (Palm Mute)
G E C
e-------------------------
B-------------------------
G----------------------5--
D--5----------2--------5--
A--5----------2--------3--
E--3----------0-----------

Lyrics: Mark

G
Lets save some time To talk this over
E C
You're out of line And really sober
G
We can't depend On Your excuses
E C
Cause in the end Its fucking useless



Chorus: Tom

G E C
e----------------------------------
B----------------------------------
G----------------------5-----------
D--5----------2--------5-----------
A--5----------2--------3-----------
E--3----------0--------------------


G D
You can only lean on me for so long
E C
Bring the ship up out and watch you friend drown
G D
Sit up on the ledge that You have come down
E C
You can only lean on me for so long



Guitar inturlude thing 1:

e---------------------
B---------------------
G--------------------- X4
D---------------------
A----2h3p2---2h3p2--0-
E--3------------------



Verse 2: Mark

(the 2nd chorus isn't chords just play what is down under this ezactly how it is)


e----------------------------------------------------------------------------
B----------------------------------------------------------------------------
G----------------------------------------------------------------------------
D--------5---5---5---5---5---5---5---5---5---5---5---5---5---5---5---5-------
A----------------------------------------------------------------------------
E------33--33--33--33--33--33--33--33--33--33--33--33--33--33--33--33--------


Lyrics: Mark

Island never shuts, I'm not a chaser
If somebody docks, and your a stranger
Cover up your scares, put on a gay face
Let into a bar and try the same face


Chorus: Tom

G E C
e----------------------------------
B----------------------------------
G----------------------5-----------
D--5----------2--------5-----------
A--5----------2--------3-----------
E--3----------0--------------------


G D
You can only lean on me for so long
E C
Bring the ship up out and watch you friend drown
G D
Sit up on the ledge that You have come down
E C
You can only lean on me for so long




back to Intro: Chords
G C D
e--------------------------------
B--------------------------------
G---------5------7---------------
D--5------5------7---------------
A--5------3------5---------------
E--3-----------------------------

Lyrics: Mark

G C D
so sorry it's over
X4
G C D
so sorry it's over

Lyrics for tom during the last two times

G C A
theres so much more that i wanted and
A
theres so much more that i needed and
G C A (hold)
time just movivng on and on and on, soon we'll all be gone


Guitar inturlude thing 1:

e---------------------
B---------------------
G--------------------- X4
D---------------------
A----2h3p2---2h3p2--0-
E--3------------------

Guitar inturlude thing 2:

e---------------------
B---------------------
G--------------------- X4
D-5-------------------
A----5h7p5--5h7p5---3-
E---------------------




Ending: (Same as chorus except for when it is near the end of the song)
G D E C
E----------------------
B----------------------
G------7--------5------
D--5---7----2---5------
A--5---5----2---3------
E--3--------0----------


Lyrics: mark

G D
man on a mission, can't say i miss him around
E G C
insider information, hand in your resignation
G D
Loss of a good friend, lost all the intentions i found
E G C
I live across the nation, yeah later
A (let ring)
see you around

OptimusPrime

Toegevoegd door OptimusPrime op zo 01 dec, 2002 8:38 am

Auteur: ?
Componist: ?
Uitgever: ?
Taal: Engels

Reacties

CommonCrawl [Bot]

Volg Muzikum