Blink 182

Blink 182
Shut Up Ver 4 (Guitar tab)

blink-182
shut up







intro let ring

[]-5-5-5-5-5-5-5-5----------------------------------------------------
[]-x-x-x-x-x-x-x-x-------5-----------5----------5-----------5-repeat--
[]-2-2-2-2-2-2-2-2-----2---2------2----2------2---2-------2---2-------
[]----------------------------------------------------0---------------
[]------------------0----------0-----------4--------------------------
[]--------------------------------------------------------------------


verse

"shut the fuck up she said"----
[]-------------------------------------------------------------------
[]-------------------------------------------------------------------
[]-------------------------------------------------------------------
[]-------------------------------------------------------------------
[]-0--0-0-0---0-0-0---0-0-0--0-0---4--4-4-4---4-4-5---5-5-5---5-5----
[]-------------------------------------------------------------------



chorus

[]-------------------------------------------------------------------
[]-------------------------------------------------------------------
[]-----------------------------------------14--14-14-14-14-----------
[]--12--12-12-12-12-12-------7--7-7-7-7-----x---x--x--x--x--14-------
[]--12--12-12-12-12-12-------7--7-7-7-7----12--12-12-12-12---x-------
[]--10--10-10-10-10-10-------5--5-5-5-5---------------------12-------

OptimusPrime

Toegevoegd door OptimusPrime op zo 01 dec, 2002 8:38 am

Auteur: ?
Componist: ?
Uitgever: ?
Taal: Engels

Reacties

CommonCrawl [Bot]

Volg Muzikum