Blink 182

Blink 182
Im Sorry Ver 3 (Guitar tab)

Intro 4x

let this part ring

|--------------------------------------------------|
|--------------------------------------------------|
|--------------------------------6--------6--------|
|----7--9--7--6------------0--------7-------7------|
|----------------7--7--7------7--------------------|
|-5------------------------------------------------|






riff #1

|--------------------------------|
|--------------------------------|
|--------------------------------|
|--------------------------------|
|----7--------7-------7--------7-|

OptimusPrime

Toegevoegd door OptimusPrime op zo 01 dec, 2002 8:38 am

Auteur: ?
Componist: ?
Uitgever: ?
Taal: Engels

Reacties

CommonCrawl [Bot]

Volg Muzikum