Blink 182

Blink 182
Shut Up Ver 3 (Guitar tab)

This version is one that I sort of figured out myself, but I used other tabs to help as well,
I play this song with my "band" and in my opinion it's one of blink's best.
Most of it is played with fairly heavy distortion, but I'll specify the clean parts.
listen to the song for timing.
Intro
|-------------------------------------------------|
|-------------------------------------------------|
|---------------------------------6-6-6-6-7-7-7-7-|
|-7-7-7-7-7-7-7-7-7-7-7-7-7-7-7-7-6-6-6-6-7-7-7-7-|X4
|-----------------7-7-7-7-7-7-7-7-4-4-4-4-5-5-5-5-|
|-----------------5-5-5-5-5-5-5-5-----------------|
Interlude (clean)
|-----0-------0-------0-------0----|
|---0---0---0---0---0---0---0---0--|
|----------------------------------|
|----------------------------------|
|-----------------4-------5--------|
|-5-------5------------------------|

Chorus
|--------------------------------|
|--------------------------------|
|----------------6-6-6-6-7-7-7-7-|
|7-7-7-7-7-7-7-7-6-6-6-6-7-7-7-7-|
|7-7-7-7-7-7-7-7-4-4-4-4-5-5-5-5-|
|5-5-5-5-5-5-5-5-----------------|

Riff 1
|------------------------------------|------------------------------------------|
|------------------------------------|------------------------------------------|
|------------------------------------|------------------------------------------|
|----7-7-7-7-7-7-7-7---------7-7-7-7-|X2----------------------------------------|X2
|----5-5-5-5-5-5-5-5-7-7-7-7---------|---9-9-9-9-9-9-9-9-12-12-12-12-12-12-12-12|
|--------------------5-5-5-5---------|---7-7-7-7-7-7-7-7-10-10-10-10-10-10-10-10|
Riff 2 ("I got too fucked up again...")
|----------------------------------------|
|----------------------------------------|
|----------------------------------------|
|----------------------------------------|(repeat)
|-9-9-9-9-9-9-9-9-11-11-11-11-12-12-12-12|
|-7-7-7-7-7-7-7-7--9--9--9--9-10-10-10-10|

"I think it's time for me to leave (repeated)...."
Guitar solo
|-------------------------------------|
|-------------------------------------|
|-9-9-9-9-9-9-9-9-11-11-11-11-7-7-7-7-|X6
|-9-9-9-9-9-9-9-9-11-11-11-11-7-7-7-7-|
|-7-7-7-7-7-7-7-7--9--9--9--9-5-5-5-5-|
|-------------------------------------|
Instrumental solo
|---------------------------------------------------------------------------|
|---------------------------------------------------------------------------|
|---------------------------------------------------------------------------|
|-7-7-7-7-7-7-7-7-6-6-6-6-4-4-4-4-11-11-11-11-11-11-11-11-9-9-9-9-7-7-7-7-7-|
|---------------------------------------------------------------------------|
|---------------------------------------------------------------------------|

|---------------------------------------------------------------------------|
|---------------------------------------------------------------------------|
|---------------------------------------------------------------------------|
|-7-7-7-7-7-7-7-6-6-6-6-4-4-4-4-11-11-11-11-11-11-11-11-9-9-9-9-12-12-12-12-|
|---------------------------------------------------------------------------|
|---------------------------------------------------------------------------|

Intro.
19 sec.
No guitar
Shut the fuck up she said,
I�m going fucking deaf you�re always too loud,
everything�s too loud,
Now that all my friends left,
This place is fucking dead,
I want to move out,
When can we move out this shit has gotta stop�.

Guitar interlude #1...

I�ll run away

Chorus X2.
No guitar
Get the fuck up she said,
Your life is meaningless ,
It�s going nowhere,
You�re going no where,
You�re just a fuck-up she said,
I�ll live alone instead,
She said you don�t care,
I know I don�t care.

Riff #1

I�ll never ask permission from you,
Fuck off I�m not listening to you,
I�m not coming home,
I�m never going to come back home,

Riff #2
I got to fucked up again
and passed out on the bridge
I can�t forget you
I can�t forget you,
No sleep on this flight,
I�ll think about the nights we had do get through,
How did we get through,

Riff #1
I�ll never ask permission from you,
Fuck off I�m not listening to you,
I�m not coming home,
I�m never going to come back home
I�ll run away,
Guitar solo
I think it�s time that I should leave
I think it�s time that I should leave
I think It�s time that I should leave
I think it�s time that I should....

Instrumental solo
Riff #1
I�ll never ask permission from you,
Fuck off I�m not listening to you,
I�m not coming home,
I�m never going to come back home,
I�ll run away

Chorus (X5)
I think it�s time for me to leave,
I think it�s time for me to leave,
I think it�s time for me to leave,
I think it�s time for me to leave.

OptimusPrime

Toegevoegd door OptimusPrime op zo 01 dec, 2002 8:38 am

Auteur: ?
Componist: ?
Uitgever: ?
Taal: Engels

Reacties

CommonCrawl [Bot]

Volg Muzikum