Blink 182

Blink 182
Alone Ver 3 (Guitar tab)

song:alone
artist:blink 182
album:flyswatter


this tab sound exactly the same as the album "flyswatter"

intro
E----------------------------
B----------------------------
G----------------------------
D---------------------------- 3 times
A---7-7-8-7-5-10-8-7---------
E-5--------------------------

E----------------------------
B----------------------------
G----------------------------
D----------------------------
A---7-7-8-7-5-5-----10-10-8-8
E-5-------------8-8----------

verse 1
E----------------------------
B----------------------------
G----------------------------
D--10------7----------------- 2 times
A--10-7x---7-7x--------------
E---8------5-----------------

E-----------------------------
B-----------------------------
G-----------------------------
D--10-------15----17-----10--- 2 times
A--10-4x----15-4x-17-4x--10-4x
E---8-------13----15------8---

All these thoughts and things that I don't know
Maybe this is all a nightmare
Your laughter ends in darkness
You're doing what you want to
I need some time alone


choros
E-----------------------------
B-----------------------------
G------9----10----------------
D-7----9-4x-10-4x-10----9----- 4 times
A-7-4x-7-----8----10-3x-9-----
E-5----------------8----7-----

You don't talk to me
You don't notice me
You don't talk to me
You don't notice me


E----------------------------
B----------------------------
G----------------------------
D---------------------------- 3 times
A---7-7-8-7-5-10-8-7---------
E-5--------------------------

E----------------------------
B----------------------------
G----------------------------
D----------------------------
A---7-7-8-7-5-5-----10-10-8-8
E-5-------------8-8----------

E----------------------------
B----------------------------
G----------------------------
D--10------7----------------- 2 times
A--10-7x---7-7x--------------
E---8------5-----------------

E-----------------------------
B-----------------------------
G-----------------------------
D--10-------15----17-----10--- 2 times
A--10-4x----15-4x-17-4x--10-4x
E---8-------13----15------8---

Maybe this is all a nightmare
Your laughter and dark fear
You're doing what you want to
I need some time alone

E-----------------------------
B-----------------------------
G------9----10----------------
D-7----9-4x-10-4x-10----9----- 4 times
A-7-4x-7-----8----10-3x-9-----
E-5----------------8----7-----

You don't talk to me
You don't notice me
You don't talk to me
You don't notice me

outro
E----------------------------
B----------------------------
G----------------------------
D----------------------------
A---7-7-8-7-5-5-----10-10-8-8
E-5-------------8-8----------

OptimusPrime

Toegevoegd door OptimusPrime op zo 01 dec, 2002 8:38 am

Auteur: ?
Componist: ?
Uitgever: ?
Taal: Engels

Reacties

CommonCrawl [Bot]

Volg Muzikum