Blink 182

Blink 182
Grandpa Ver 2 (Guitar tab)

Artist: Blink 182
Album: Take off your pants and Jacket
Title: Grandpa (secret track 15 on Jacket CD)
Transcriptor: Justin Chin
Email: JayChin19@juno.com

Intro (Play 4X)

e|2-----0-----2-----0-------------------------------------------------------|
B|---3-----3-----3-----3---3------3/5---2-----2/3---------------------------|
G|----------------------------0------------2--------------------------------|
D|0-----0-----0-----0-------------------------------------------------------|
A|--------------------------------------0-----------------------------------|
E|-------------------------3------3-----------------------------------------|

Verse two

e|--------------------------------------------------------------------------|
B|3-----3-----3-----3------3-----3-----3-----3------3-----3-----3-----3-----|
G|---0-----0-----0-----0------0-----0-----0-----0------0-----0-----0-----0--|
D|--------------------------------------------------------------------------|
A|-------------------------0-----0-----0-----0------------------------------|
E|3-----3-----3-----3-------------------------------3-----3-----3-----3-----|

Verse two continued

e|--------------------------------------------------------------------------|
B|3-----3-----3------3-----3-----3-----3-----3------3-----3-----3-----3-----|
G|---0-----0-----0------0-----0-----0-----0-----0------0-----0-----0-----0--|
D|--------------------------------------------------------------------------|
A|0-----0-----0------0------------------------------0-----0-----0-----0-----|
E|-------------------------3-----3-----3-----3------------------------------|

Verse two continued

e|--------------------------------------------------------------------------|
B|2-----2-----2-----2-----2-------------------------------------------------|
G|---2-----2-----2-----2----------------------------------------------------|
D|--------------------------------------------------------------------------|
A|0-----0-----0-----0-----0-------------------------------------------------|
E|--------------------------------------------------------------------------|

Repeat Intro and Verse

End on this note and let it ring

e|--|
B|3-|
G|--|
D|--|
A|0-|
E|--|

OptimusPrime

Toegevoegd door OptimusPrime op zo 01 dec, 2002 8:38 am

Auteur: ?
Componist: ?
Uitgever: ?
Taal: Engels

Reacties

CommonCrawl [Bot]

Volg Muzikum