Blink 182

Blink 182
Whats My Age Again Ver 2 (Guitar tab)

Band: Blink 182
Song: What's My Age Again?
Transcribed by: Luke Zimmermann (LukeZim@Texas.net)

Intro/Verse 1 (Repeat however many times necesary)

N.C
e-----6-------6-------6-------6-------6-------6---|
B---7---7---7---7---7---7---7---7---7---7---7---7-|
G-6-------6-------6-------6-------6-------6-------|
D-------------------------------------------------|
A-------------------------------------------------|
E-------------------------------------------------|

I took her out, it was a Friday night, I wore cologne,

to get the feeling right. We started making out, and

she took off my pants, but then I turned on the tv, and

that's about the time

Chorus (Repeat during the following part)
F#5 C#5 D#5 B5
e-------------------------------|
B-------------------------------|
G----------6------8------4------|
D---4------6------8------4------|
A---4------4------6------2------|
E---2---------------------------|

she walked away from me.

Nobody likes you when your twenty-three

And I'm still more amused by tv shows.

What the hell is A.D.D.? My friends say I should

act my age. What's my age again? What's my age again?

Intro

Verse 2 (Palm Mute the Chorus)

Then later on, on the drive home, I called

her mom, from a pay phone. I said "I was the cops, and

your husband's in jail. The state looks down on sodomy."

And that's about the time

Chorus

that bitch hung up on me.

Nobody likes you when you're twenty-three.

And I'm still more amused by prank phone calls,

what the hell is caller ID? My friends say I should

act my age. What's my age again? What's my age again?

Interlude

e---6------6-----6-----6---------------------------------------------|
B-----7------7-----7-----7-------------------------------------------|
G-6------6-----6-----6--------------3---------3---------3---------3--|
D---------------------------4-4-4-6---4-4-4-6---4-4-4-6---4-4-4-6----|
A--------------------------------------------------------------------|
E--------------------------------------------------------------------|

e-------2-------------2------------2-------------2-------------------|
B---------2-------------2------------2-------------2-----------------|
G---3---------3---3---------3---3--------3---3---------3-------------|
D-4---4-----4---4---4-----4---4---4----4---4---4-----4---------------|
A--------------------------------------------------------------------|
E--------------------------------------------------------------------|

e-------2-------------2------------2-------------2-------------2-----|
B---------2-------------2------------2-------------2-------------2---|
G---3---------3---3---------3---3--------3---3---------3---3--------3|
D-4---4-----4---4---4-----4---4---4----4---4---4-----4---4---4----4--|
A--------------------------------------------------------------------|
E--------------------------------------------------------------------|

And that's about the time

Chorus

she walked away from me. Nobody likes you when

you're twenty-three. And you still act you're in

freshman year. What the hell is wrong with me?

My friends say I should act my age. What's my age again?

What's my age again?

Chorus

Thats about the time that she broke up with me.

No one should take themselves so seriously. With

many years ahead to fall in line, why would you

wish down on me? I never want to act me age. What's

my age again? What's my age again? What's my age again?

End with a B5

NOTE : At the end of some of the chorus' go from D#5 to
C#5 as opposed to going to B5, but at the end of the song
go from D#5 to C#5 to B5.

OptimusPrime

Toegevoegd door OptimusPrime op zo 01 dec, 2002 8:38 am

Auteur: ?
Componist: ?
Uitgever: ?
Taal: Engels

Reacties

CommonCrawl [Bot]

Volg Muzikum