Blink 182

Blink 182
Anthem Ver 2 (Guitar tab)

Song: Anthem
Band: Blink 182
Album: Enema of the State
Tabbed By: Kurt everclear_bass@hotmail.com

Intro:
e---------------------------------------------------------------
B-----------------------44444-55555-------------55555---------
G-44444-44444-44444-44444------------44444---------
D-44444-44444-44444-44444-44444-44444-44444-
A-22222-22222-22222-22222-44444-22222-44444-
E----------------------------------------------22222-----------22222

Verse
e-----------------------------------------------------------------------
B------------------------------------------------------------------------
G-44444-44444-44444-44444-------------------------------------
D-44444-44444-44444-44444--22222-44444-22222-44444
A-22222-22222-22222-22222--22222-44444-22222-44444
E----------------------------------------------00000-22222-00000-22222

"But good things come to those"
e-----------------------------------------------------
B-----------------------------------------------------
G----------------------------------------------------
D-66666666-4444444-222222222--444444444
A-66666666-4444444-222222222--444444444-
E-44444444-2222222-000000000--222222222

Fill:
e------------------------------
B-----------------------------
G-44444-44444-44444----
D-44444-44444-44444--2
A-22222-22222-22222--2
E-----------------------------------0

"Lies, Lies"
e--------------------------------------------------------------------------------------
B------------------------------------------------------------------------------------
G4444444-444444444-44444444-44444444------------------------------
D4444444-444444444-44444444-44444444-2222-4444-2222-4444
A2222222-222222222-22222222-22222222-2222-4444-2222-4444
E--------------------------------------------------------------------0000-2222-0000-2222-

"You Don't Belong...I timebomb"
e------------------------------------------------------
B-----------------------------------------------------
G-44444444----------------------------------------
D-44444444--22222222-66666666-44444444
A-22222222--22222222-66666666-44444444
E-------------------00000000-44444444-22222222

Solo:
e-------------------------------------
B------------------------------------
G------------------------------------
D----2---4--2-------2-------2-----
A------0--------0-2-----0-4----0-2
E-------------------------------------

Song Order:
Intro 1x
Verse 2x
"Good things" 4x
Fill 1x
"Lies, Lies" 2x
"Good Things' 4x
"You Don't Belong" 3x
Solo 2x
Break Bass plays
Pick Scratch 1x
"Good Things" 4x
"You Don't Belong" Until End

End on B5

so that's about it...if I messed it up, then fix it for yourself. Any
comments/threats on my life? everclear_bass@hotmail.com

OptimusPrime

Toegevoegd door OptimusPrime op zo 01 dec, 2002 8:38 am

Auteur: ?
Componist: ?
Uitgever: ?
Taal: Engels

Reacties

1 bericht

CommonCrawl [Bot]
joeljoel
zo 27 jul, 2003 2:30 pm
THIS GUY DOESNT KNOW HOW TO TYPE PROPERLY.
SO I STRAIGHENED out the parts that there was enough room for.


Song: Anthem
Band: Blink 182
Album: Enema of the State
Tabbed By: Kurt everclear_bass@hotmail.com

Intro:
e--------------------------------------------
B-44444-55555-------55555--------------------
G-44444-44444-44444-44444-------44444--------
D-44444-44444-44444-44444-44444-44444-44444--
A-22222-22222-22222-22222-44444-22222-44444--
E-------------------------22222-------22222--

"But good things come to those"
e---------------------------------------
B---------------------------------------
G---------------------------------------
D-66666666-4444444-222222222444444444--
A-66666666-4444444-222222222-444444444--
E-44444444-2222222-000000000222222222--

Fill:
e---------------------
B---------------------
G-44444-44444-44444---
D-44444-44444-444442-
A-22222-22222-222222-
E-------------------0-

"You Don't Belong...I timebomb"
e---------------------------------------
B---------------------------------------
G-44444444------------------------------
D-44444444--22222222-66666666-44444444--
A-22222222--22222222-66666666-44444444--
E-----------00000000-44444444-22222222--

Solo:
e----------------------------------
B----------------------------------
G----------------------------------
D----2---4--2-------2-------2------
A------0--------0-2-----0-4----0-2-
E----------------------------------
1 bericht • Pagina 1 van 1

Volg Muzikum