Blink 182

Blink 182
Dancing With Myself Ver 4 (Guitar tab)

Dancing With Myself - Blink 182
Tabbed By Simon Richards
Loads of versions of this song are totally out so heres the classic blink -182- song
for all those fans. E-Mail me at tom_delonge_182@ntlworld.com if u have any requests
of blink songs.

Intro x5
e|-----------------------|
B|-----------------------|
G|-5-5--5--5--4--5--7--5-|
D|-----------------------|
A|-----------------------|
E|-----------------------|

Verse x8 (Play this bit through verse if two guitars are playing)
e|-----------------------|
B|-----------------------|
G|-5-5--5--5--4--5--7--5-|
D|-----------------------|
A|-----------------------|
E|-----------------------|

Palm Mute Completely
e|-----------------------------------------------------------------------|
B|-----------------------------------------------------------------------|
G|--5--5-5-5-5-5-5-------------------------------------------------------|
D|--5--5-5-5-5-5-5----3--3-3-3-3-3-3----5--5-5-5-5-5-5----3--3-3-3-3-3-3-|
A|--3--3-3-3-3-3-3----3--3-3-3-3-3-3----5--5-5-5-5-5-5----3--3-3-3-3-3-3-|
E|--------------------1--1-1-1-1-1-1----3--3-3-3-3-3-3----1--1-1-1-1-1-1-|
On the floors of Tokyo / In London town's a go go
With the record selection / And the mirror's reflection, I'm dancin' with myself
When there's no one else in sight, in a crowded lonely night
Well, I've waited so long for my love vibration and I'm dancing with myself

Chorus x2
e|--------1111-0000------------1111-0000------------1111-0000-----------1111-0000-------|
B|------------------3333-----------------3333-----------------3333----------------3333--|
G|--5-5---------------------------------------------------------------------------------|
D|--5-5>>-----------------3-3------------------5-5------------------3-3-----------------|
A|--3-3-------------------3-3>>----------------5-5>>----------------3-3>>---------------|
E|------------------------1-1------------------3-3------------------1-1-----------------|
Oh oh I'm dancing with myself, Oh, oh, I'm dancing with myself
Well, there's nothing to lose / And there's nothing to prove, well,
I'm dancing with myself, oh, oh, oh, oh

Interlude x1
e|------------------|
B|------------------|
G|-5555555555555555-|
D|------------------|
A|------------------|
E|------------------|

Verse x8 (Play this bit through verse if two guitars are playing)
e|-----------------------|
B|-----------------------|
G|-5-5--5--5--4--5--7--5-|
D|-----------------------|
A|-----------------------|
E|-----------------------|

Palm Mute Completely
e|-----------------------------------------------------------------------|
B|-----------------------------------------------------------------------|
G|--5--5-5-5-5-5-5-------------------------------------------------------|
D|--5--5-5-5-5-5-5----3--3-3-3-3-3-3----5--5-5-5-5-5-5----3--3-3-3-3-3-3-|
A|--3--3-3-3-3-3-3----3--3-3-3-3-3-3----5--5-5-5-5-5-5----3--3-3-3-3-3-3-|
E|--------------------1--1-1-1-1-1-1----3--3-3-3-3-3-3----1--1-1-1-1-1-1-|
If I looked all over the world / And there's every type of girl
But your empty eyes seem to pass me by / And leave me dancin' with myself
So let's sink another drink / 'Cause it'll give me time to think
If I had the chance I'd ask one to dance / And I'll be dancin' with myself

Chorus x2
e|--------1111-0000------------1111-0000------------1111-0000-----------1111-0000-------|
B|------------------3333-----------------3333-----------------3333----------------3333--|
G|--5-5---------------------------------------------------------------------------------|
D|--5-5>>-----------------3-3------------------5-5------------------3-3-----------------|
A|--3-3-------------------3-3>>----------------5-5>>----------------3-3>>---------------|
E|------------------------1-1------------------3-3------------------1-1-----------------|
Oh oh I'm dancing with myself, Oh, oh, I'm dancing with myself
Well, there's nothing to lose / And there's nothing to prove, well,
Dancing with myself, Oh, oh, oh.
Oh, oh oh oh, oh oh, oh oh oh, oh oh... WORK IT

Solo x3 (1st time without chord)
e|-----------------------------------|
B|-----------------------------------|
G|-5---5-5-5-5--7-7-7-7--12-12-12-12-|
D|-5>>-------------------------------|
A|-3---------------------------------|
E|-----------------------------------|

e|-----------------------------------|-Last Time Play-
B|-----------------------------------|----------------
G|-----5-5-5-5--7-7-7-7--12-12-12-12-|-12-12-12-12-12-
D|-5---------------------------------|----------------
A|-5>>-------------------------------|----------------
E|-3---------------------------------|----------------

Verse x8 (Play this bit through verse if two guitars are playing)
e|-----------------------|
B|-----------------------|
G|-5-5--5--5--4--5--7--5-|
D|-----------------------|
A|-----------------------|
E|-----------------------|

e|------MUTE-------------------------------------------------------------|
B|-----------------------------------------------------------------------|
G|--5--5-5-5-5-5-5-------------------------------------------------------|
D|--5--5-5-5-5-5-5----3--3-3-3-3-3-3----5--5-5-5-5-5-5----3--3-3-3-3-3-3-|
A|--3--3-3-3-3-3-3----3--3-3-3-3-3-3----5--5-5-5-5-5-5----3--3-3-3-3-3-3-|
E|--------------------1--1-1-1-1-1-1----3--3-3-3-3-3-3----1--1-1-1-1-1-1-|
Well if I looked all over the world / And there's every type of girl
But your empty eyes seem to pass me by / And leave me dancin' with myself.

e|----------------------------------------------------------|
B|----------------------------------------------------------|
G|--5--5-5-5-5-5-5-------------------------5b---------------|
D|--5--5-5-5-5-5-5----3--3-3-3-3-3-3----5------3-3-3-3-3-3--|
A|--3--3-3-3-3-3-3----3--3-3-3-3-3-3----5------3-3-3-3-3-3--|
E|--------------------1--1-1-1-1-1-1----3------1-1-1-1-1-1--|
So let's sink another drink / 'Cause it'll give me time to think
If I had the chance I'd ask one to dance / And I'll be dancin' with myself

Chorus x1
e|-------1111-0000------------1111-0000------------1111-0000-------------------------|
B|-----------------3333-----------------3333----------------3333---------------------|
G|--5-5------------------------------------------------------------------------------|
D|--5-5>>----------------3-3------------------5-5------------------5-----------------|
A|--3-3------------------3-3>>----------------5-5>>----------------5>>>>>>>>>>>>>>>--|
E|-----------------------1-1------------------3-3------------------3-----------------|
Oh oh dancing with myself, / Oh, oh, dancing with myself
If I had the chance I'd ask one to dance
If I had the chance I'd ask one to dance
>>>>>>>>>>>>>>>
If I had the chance I'd ask one to daaaaaaaaaaaaaance

e|-----------------------------------------------|
B|-----------------------------------------------|
G|-55--------55--------55--------55---------5----|
D|-55>-33----55>-33----55>-33----55>-33-----5>>>-|
A|-33--33>---33--33>---33--33>---33--33>----3----|
E|-----11--------11--------11--------11----------|
Oh, oh, oh / oh oh oh / oh, oh, oh / oh, oh, oh / oh, oh, oh
Oh, oh, oh / oh oh oh / oh, oh, oh / oh, oh, oh
And Sweat, sweat, sweat, sweat, sweat, sweat, sweat, sweat, sweat, sweat, sweat, sweat, SWEEEAAATTTT!!!! OH OH OH!!!

(DRUMS TO THE END)
WOW! HEY YOU LOOK GREAT TONIGHT! HEY THAT'S SOME SAY WHERE'D YOU GET THAT DONE?
YEAH I'VE NEVER SEEN A CIRCUMCISION LIKE THAT BEFORE! IT LOOKS REALLY GREAT! - YOU WANNA DANCE?

OptimusPrime

Toegevoegd door OptimusPrime op zo 01 dec, 2002 8:38 am

Auteur: ?
Componist: ?
Uitgever: ?
Taal: Engels

Reacties

CommonCrawl [Bot]

Volg Muzikum