Blink 182

Blink 182
Pathetic Ver 2 (Guitar tab)

tabbed by cole (snafooza837@aol.com)


chords

C G A Fii F Gii

|----------------------------|
|----------------------------|
|---5-----------10-------12--|
|---5---5---7---10---3---12--|
|---3---5---7---8----3---10--|
|-------3---5--------1-------|

Riff

|--1--3-------1--3-------1--3-------0---0---0--|
|-------1-1-1------1-1-1------1-1-1---1---1----|
|----------------------------------------------|
|----------------------------------------------|
|----------------------------------------------|
|----------------------------------------------|

Intro: Riff: 3x and a half


Verse:

C
I know I\'m pathetic I knew when she said it
Gii Fii
A loser a bum\'s what she called me when I drove her home
C
There\'s no more waiting I\'m sure no more wasting
Gii Fii
I\'ve done all i can but she still wants to be left alone
C
You got you got you got to help me out
Gii Fii
And I\'ll try not to argue
C
No one no one no one likes a drop out
Gii Fii
Mistakes are hard to undo


Chorus:

A C G C F
Don\'t pull me down this is where I belong
F
I think I\'m different, But I\'m the same and I\'m wrong
A C G C F
Don\'t pull me down this is where I belong
F
I think I\'m different
F
This is where i belong


Riff: 3x and a hlaf

Verse

C
I think its disgusting beliveing and trusting
Gii Fii
If I gave a fuck there would be nothing for me to prove
C
Although its amusing its slightly confusing
Gii Fii
I\'ve done all I can but her ego is still hard to move
C
You got you got you got to help me out
Gii Fii
And I\'ll try not to argue
C
No one no one no one likes a drop out
Gii Fii
Mistakes are hard to undo

Chorus:
Palm mute these chords
A C G C F
Don\'t pull me down this is where I belong
F
I think I\'m different, But I\'m the same and I\'m wrong
A C G C F
Don\'t pull me down this is where I belong
F
I think I\'m different
F
This is where I belong

Riff: 4x

A, C-G, C-F

Chorus:

A C G C F
Don\'t pull me down this is where I belong
F
I think I\'m different, But I\'m the same and I\'m worng
A C G C F
Don\'t pull me down this is where I belong
F
I think I\'m different
F
This is where I belong

OptimusPrime

Toegevoegd door OptimusPrime op zo 01 dec, 2002 8:38 am

Auteur: ?
Componist: ?
Uitgever: ?
Taal: Engels

Reacties

CommonCrawl [Bot]

Volg Muzikum