Blink 182

Blink 182
What Went Wrong Claranet And Guitar Solo (Guitar tab)

What Went Wrong Claranet and Guitar Solo - Blink 182.

e|-----0-----------------0-----------------0-----------------0---------------|
B|--------------2-----------------2-----------------2-----------------2------|
G|---2---2----2---2----2---2----2---2----2---2----2---2----2---2----2---2----|
D|-------------------------------------0--------0--------0--------0----------|
A|-2--------2--------2--------2----------------------------------------------|
E|---------------------------------------------------------------------------|

e|-----0-----------------0---------------------------------------------------|
B|--------------2-----------------2---------2-----2----2-2-2-2---------------|
G|---2---2----2---2----2---2----2---2-----2-----2----2---2-2-2---------------|
D|--------------------------------------0-----0----0-----0-0-0---------------|
A|-0--------0--------2--------2----------------------------------------------|
E|---------------------------------------------------------------------------|
-----------------------------------------------------------------------------|

This Is the claranet solo, Sounds great for acoustic guitars!

e|---------------------------------------------------------------------------|
B|---------------------------------------------------------------------------|
G|---------------------------------------------------------------------------|
D|---------------------------------------------------------------------------|
A|--0-------0--2-0---4-5-7--0-------0--2-4--4-0----2--0----------------------|
E|-------4-----------------------4---------------0---------------------------|

Enjoy, By Stu.

-------------------------------------------------------------------------------

OptimusPrime

Toegevoegd door OptimusPrime op zo 01 dec, 2002 8:37 am

Auteur: ?
Componist: ?
Uitgever: ?
Taal: Engels

Reacties

CommonCrawl [Bot]

Volg Muzikum