Blink 182

Blink 182
Take Off Your Pants And Jacket Album (Guitar tab)

Blink 182- Take Off Your Pants And Jacket Album
tabbed by Jordan Campbell everything except everytime I look for you.
------------------------------------------------------------
Anthem Part Two

Intro (part II)
----------------------------------------------
---8--8--6--6--5--5--6--6-----------------
----5--5--5--5--5--5--5--5----------------
----------------------------------------------
----------------------------------------------
----------------------------------------------
OR Intro (part 1)
3--3--1--1--0--0--1�1-------------------
-1--1--1--1--1--1--1--1-------------------
----------------------------------------------
----------------------------------------------
----------------------------------------------
Intro (part two) palm muted

----------------------------------------------
----------------------------------------------
----------------------------------------------
----0h3----2---0h3--2�-0h3--2--0--0�
-33-----33---33---33-33---33-33-33----
----------------------------------------------
Pre-Verse
----------------------------------------------
----------------------------------------------
9-10-957-9-10-957-9-10-957-9-10-5�
x-x--xxx-x-x--xxx-x-x--xxx-x-x--x-----
7-8--735-7-8--735-7-8--735-7-8--3----
----------------------------------------------
Verse (come in after two lines) palm mute mostly except
for when you come in with those high power chords
-----------------------------------------------------------------------------------------
-----------------------------------------------------------------------------------------
99-7-555555555555---------------------55555555555---------------------------------
99-7-555555555555-777777-333333-55555555555-77777777---3333333
77-5-333333333333-777777-333333-33333333333-77777777---3333333
-------------------------555555-111111-------------------55555555---1111111
Chorus
----------------------------------------------
----------------------------------------------
------------5555--------------------------------
-222-333-5555-5555----------------------------
-222-333-3333-5555----------------------------
-000-111--------3333------------------------------
Post Chorus (We'll never give up, it's no use,
if we're ***ed up your to blame) (palm muted)
---------------------------------------------------------------
---------------------------------------------------------------
--------------------------5555555--------------------------------------
-77777777-3333333-5555555-5555555-7777777-3--------------------
-77777777-3333333-3333333-5555555-7777777-3--------------------
-55555555-1111111------------ 3333333-5555555-1-------------------- ---
------------------------------------------------------------
Online songs
1:----------------|----------------|----------------|----------------|
2:----------------|----------------|----------------|----------------|
3:----------------|----------------|----------------|----------------|
4:----0-----------|----------------|----0-----------|----------------|
5:--4---4-7---4---|--5-5---5---5---|--4---4-7---4---|--5-5---5---5---|
6:5---------------|5-----5---5-----|5---------------|5-----5---5-----|
Everything you wished came true....
1:----------------|----------------|----------------|----------------|
2:----------------|----------------|----------------|----------------|
3:----------------|----------------|----------------|----------------|
4:----0-----------|----------------|----0-----------|2---------------|
5:--4---4-7---4---|--5-5---5---5---|--4---4-7---4---|2---------------|
6:5---------------|5-----5---5-----|5---------------|0---------------|
Interlude (0:20) Gtr.1(dist)
1:----------------|----------------|----------------|----------------|
2:----------------|----------------|----------------|----------------|
3:----------------|----------------|----------------|----------------|
5:--4-----7---4---|--5-----5---5---|--4-----7---4---|--5-----5---5---|
6:5---5-5---5-----|5---5-5---5-----|5---5-5---5-----|5---5-5---5-----|

1:----------------|----------------|----------------|----------------|
2:----------------|----------------|----------------|----------------|
3:----------------|----------------|---------------------|--7---7---7---7-|
4:----------------|----------------|---------------------|--7---7---7---7-|
5:--4-----7---4---|--5-----5---5---|--4-----7---4---|--5---5---5---5-|
6:5---5-5---5-----|5---5-5---5-----|5---5-5---5-----|----------------|
Verse (0:30) Gtr.1(dist
1:----------------|----------------|----------------|----------------|
2:----------------|----------------|----------------|----------------|
3:----------------|----------------|----------------|----------------|
4:7---------------|----------------|----------------|----------------|
5:x---------------|----------------|----------------|----------------|
6:5---------------|----------------|----------------|----------------|
Why do you still keep it around...
1:----------------|----------------|----------------|----------------|
2:----------------|----------------|----------------|----------------|
3:----------------|----------------|----------------|----------------|
4:----------------|----------------|----------------|----------------|
5:----------------|----------------|----------------|----------------|
6:----------------|----------------|----------------|----------------|
Interlude (0:40) Gtr.1(dist)
1:----------------|----------------|----------------|----------------|
2:----------------|----------------|----------------|----------------|
3:----------------|----------------|----------------|----------------|
4:----------------|----------------|----------------|----------------|
5:--4-----7---4---|--5-----5---5---|--4-----7---4---|--5-----5---5---|
6:5---5-5---------|5---5-5---------|5---5-5---------|5---5-5---------|
Verse (0:49) Gtr.1(dist)
1:----------------|----------------|----------------|----------------|
2:----------------|----------------|----------------|----------------|
3:----------------|----------------|----------------|--7---7---7---7-|
4:----------------|----------------|----------------|--7---7---7---7-|
5:--4-----7---4---|--5-----5---5---|--4-----7---4---|--5---5---5---5-|
6:5---5-5---------|5---5-5---------|5---5-5---------|----------------|
1:----------------|----------------|----------------|----------------|
2:----------------|----------------|----------------|----------------|
3:----------------|----------------|----------------|----------------|
4:----------------|----------------|----------------|----------------|
5:----------------|----------------|----------------|x\--------------|
6:----------------|----------------|----------------|x\--------------|
pick scrape


Chorus (0:59) Gtr.1(dist)
1:----------------|----------------|----------------|----------------|
2:----------------|----------------|----------------|----------------|
3:7---7-7-7-7-7-7-|-------------------|9---9-9-9-9-9-9-|7---7-7-7-7-7-7-|
4:7---7-7-7-7-7-7-|7---7-7-7-7-7-7-|9---9-9-9-9-9-9-|7---7-7-7-7-7-7-|
5:5---5-5-5-5-5-5-|7---7-7-7-7-7-7-|7---7-7-7-7-7-7-|5---5-5-5-5-5-5-|
6:--------------------|5---5-5-5-5-5-5-|----------------|----------------|

Please don't remind me...

1:----------------|----------------|----------------|----------------|
2:----------------|----------------|----------------|----------------|
3:7---7-7-7-7-7-7-|-------------------|9---9-9-9-9-9-9-|7---7-7-7-7-7-7-|
4:7---7-7-7-7-7-7-|7---7-7-7-7-7-7-|9---9-9-9-9-9-9-|7---7-7-7-7-7-7-|
5:5---5-5-5-5-5-5-|7---7-7-7-7-7-7-|7---7-7-7-7-7-7-|5---5-5-5-5-5-5-|
6:--------------------|5---5-5-5-5-5-5-|----------------|----------------|


Verse (1:09) Gtr.1(dist)
1:----------------|----------------|----------------|----------------|
2:----------------|----------------|----------------|----------------|
3:----------------|----------------|----------------|----------------|
4:7---------------|----------------|----------------|----------------|
5:x---------------|----------------|----------------|----------------|
6:5---------------|----------------|----------------|----------------|
And if we can have another day...

1:----------------|----------------|----------------|----------------|
2:----------------|----------------|----------------|----------------|
3:----------------|----------------|----------------|----------------|
4:----------------|----------------|----------------|----------------|
5:----------------|----------------|----------------|x\--------------|
6:----------------|----------------|----------------|x\--------------|
pick scrape









Chorus (1:19) Gtr.1(dist)
1:----------------|----------------|----------------|----------------|
2:----------------|----------------|----------------|----------------|
3:7---7-7-7-7-7-7-|-------------------|9---9-9-9-9-9-9-|7---7-7-7-7-7-7-|
4:7---7-7-7-7-7-7-|7---7-7-7-7-7-7-|9---9-9-9-9-9-9-|7---7-7-7-7-7-7-|
5:5---5-5-5-5-5-5-|7---7-7-7-7-7-7-|7---7-7-7-7-7-7-|5---5-5-5-5-5-5-|
6:--------------------|5---5-5-5-5-5-5-|----------------|----------------|
Please don't remind me...

1:----------------|----------------|----------------|----------------|
2:----------------|----------------|----------------|----------------|
3:7---7-7-7-7-7-7-|-------------------|9---9-9-9-9-9-9-|7---7-7-7-7-7-7-|
4:7---7-7-7-7-7-7-|7---7-7-7-7-7-7-|9---9-9-9-9-9-9-|7---7-7-7-7-7-7-|
5:5---5-5-5-5-5-5-|7---7-7-7-7-7-7-|7---7-7-7-7-7-7-|5---5-5-5-5-5-5-|
6:--------------------|5---5-5-5-5-5-5-|----------------|----------------|


1:----------------|----------------|----------------|----------------|
2:----------------|----------------|----------------|----------------|
3:7---7-7-7-7-7-7-|-------------------|9---9-9-9-9-9-9-|7---7-7-7-7-7-7-|
4:7---7-7-7-7-7-7-|7---7-7-7-7-7-7-|9---9-9-9-9-9-9-|7---7-7-7-7-7-7-|
5:5---5-5-5-5-5-5-|7---7-7-7-7-7-7-|7---7-7-7-7-7-7-|5---5-5-5-5-5-5-|
6:-------------------|5---5-5-5-5-5-5-|----------------|----------------|


1:----------------|----------------|----------------|----------------|
2:----------------|----------------|----------------|----------------|
3:7---7-7-7-7-7-7-|-------------------|9---9-9-9-9-9-9-|7---7-7-7-7-7-7-|
4:7---7-7-7-7-7-7-|7---7-7-7-7-7-7-|9---9-9-9-9-9-9-|7---7-7-7-7-7-7-|
5:5---5-5-5-5-5-5-|7---7-7-7-7-7-7-|7---7-7-7-7-7-7-|5---5-5-5-5-5-5-|
6:-------------------|5---5-5-5-5-5-5-|----------------|----------------|


Bridge (1:38) Gtr.1(dist)
1:----------------|----------------|----------------|----------------|
2:----------------|----------------|----------------|----------------|
3:-----------------|7---7-----------|----------------|----------------|
4:4---4-----------|7---7-----------|7-7-7-7-7-7-7-7-|2-2-2-2-2-2-2-2-|
5:4---4-----------|5---5-----------|7-7-7-7-7-7-7-7-|2-2-2-2-2-2-2-2-|
6:2---2-----------|----------------|5-5-5-5-5-5-5-5-|0-0-0-0-0-0-0-0-|
Na, Na, Na...

1:----------------|----------------|----------------|----------------|
2:----------------|----------------|----------------|----------------|
3:----------------|7---7-----------|----------------|----------------|
4:4---4----------|7---7-----------|7-7-7-7-7-7-7-7-|2-2-2-2-2-2-2-2-|
5:-4 ---4--------|5---5-----------|7-7-7-7-7-7-7-7-|2-2-2-2-2-2-2-2-|
6:2---2-----------|----------------|5-5-5-5-5-5-5-5-|0-0-0-0-0-0-0-0-|







1:----------------|----------------|----------------|----------------|
2:----------------|----------------|----------------|----------------|
3:--------------------|7-7-7-7-7-7-7-7-|----------------|----------------|
4:4-4-4-4-4-4-4-4-|7-7-7-7-7-7-7-7-|7-7-7-7-7-7-7-7-|2-2-2-2-2-2-2-2-|
5:4-4-4-4-4-4-4-4-|5-5-5-5-5-5-5-5-|7-7-7-7-7-7-7-7-|2-2-2-2-2-2-2-2-|
6:2-2-2-2-2-2-2-2-|--------------------|5-5-5-5-5-5-5-5-|0-0-0-0-0-0-0-0-|


1:----------------|----------------|----------------|----------------|
2:----------------|----------------|----------------|----------------|
3:--------------------|7-7-7-7-7-7-7-7-|----------------|----------------|
4:4-4-4-4-4-4-4-4-|7-7-7-7-7-7-7-7-|7-7-7-7-7-7-7-7-|2-2-2-2-2-2-2-2-|
5:4-4-4-4-4-4-4-4-|5-5-5-5-5-5-5-5-|7-7-7-7-7-7-7-7-|2-2-2-2-2-2-2-2-|
6:2-2-2-2-2-2-2-2-|--------------------|5-5-5-5-5-5-5-5-|0-0-0-0-0-0-0-0-|

Chorus (1:57) Gtr.1(dist)
1:----------------|----------------|----------------|----------------|
2:----------------|----------------|----------------|----------------|
3:7---7-7-7-7-7-7-|-------------------|9---9-9-9-9-9-9-|7---7-7-7-7-7-7-|
4:7---7-7-7-7-7-7-|7---7-7-7-7-7-7-|9---9-9-9-9-9-9-|7---7-7-7-7-7-7-|
5:5---5-5-5-5-5-5-|7---7-7-7-7-7-7-|7---7-7-7-7-7-7-|5---5-5-5-5-5-5-|
6:--------------------|5---5-5-5-5-5-5-|----------------|----------------|
Please don't remind me...


1:----------------|----------------|----------------|----------------|
2:----------------|----------------|----------------|----------------|
3:7---7-7-7-7-7-7-|--------------------|9---9-9-9-9-9-9-|7---7-7-7-7-7-7-|
4:7---7-7-7-7-7-7-|7---7-7-7-7-7-7-|9---9-9-9-9-9-9-|7---7-7-7-7-7-7-|
5:5---5-5-5-5-5-5-|7---7-7-7-7-7-7-|7---7-7-7-7-7-7-|5---5-5-5-5-5-5-|
6:--------------------|5---5-5-5-5-5-5-|----------------|----------------|


1:----------------|----------------|----------------|----------------|
2:----------------|----------------|----------------|----------------|
3:7---7-7-7-7-7-7-|-------------------|9---9-9-9-9-9-9-|7---7-7-7-7-7-7-|
4:7---7-7-7-7-7-7-|7---7-7-7-7-7-7-|9---9-9-9-9-9-9-|7---7-7-7-7-7-7-|
5:5---5-5-5-5-5-5-|7---7-7-7-7-7-7-|7---7-7-7-7-7-7-|5---5-5-5-5-5-5-|
6:--------------------|5---5-5-5-5-5-5-|----------------|----------------|





Outro (2:17) Gtr.1(dist) End (2:26)
1:----------------|----------------|----------------|----------------|
2:----------------|----------------|----------------|----------------|
3:----------------7-|----------------|----------------|----------------|
4:4---4---4---x-7-|---(let ring)---|----------------|----------------|
5:4---4---4---x-5-|----------------|----------------|----------------|
6:2---2---2-------|----------------|----------------|----------------|


------------------------------------------------------------
First date

E |-0-------------------------------------------
B |---3---1---3-1---1---3-1---1---3-1---0----
G |-----0---0-----0---0-----0---0-----0---0-----
D |---------------------------------------------
A |---------------------------------------------
E |---------------------------------------------

E |-------------------------------------------
B |-------------------------------------------
G |-5-5-5-5-5-5-5-5-5-5-5-5-5-5-5-5-5-5-4-----
D |-5-5-5-5-5-5-5-5-5-5-5-5-5-5-5-5-5-5-4-----
A |-3-3-3-3-3-3-3-3-3-3-3-3-3-3-3-3-3-3-2-----
E |-------------------------------------------

E |-------------------------------------------
B |-------------------------------------------
G |-5-5-5-5-5-5-5-5-5-5-5-5-5-5-5-5-5-5-4---5-
D |-5-5-5-5-5-5-5-5-5-5-5-5-5-5-5-5-5-5-4---5-
A |-3-3-3-3-3-3-3-3-3-3-3-3-3-3-3-3-3-3-2---3-
E |-------------------------------------------

Verse/Fill:
This is just repeated over and over
PALM MUTED
E |-----------
B |-----------
G |-5-5-5-----
D |-----------
A |-----------
E |-----------







Pre-Chorus:

E |---------------------------------------------------
B |---------------------------------------------------
G |-5-5-5----4-4-4----2-2-2-2-2-2-2-2-----------------
D |-5-5-5----5-5-5----2-2-2-2-2-2-2-2-3-3-3-3-5-5-5-5-
A |-3-3-3----2-2-2----0-0-0-0-0-0-0-0-3-3-3-3-5-5-5-5-
E |-----------------------------------1-1-1-1-3-3-3-3-


Chorus:
E |-------------------------------------------------------------------
B |-------------------------------------------------------------------
G |-5-5-5-5-5-5-5-5-5-4-4-4-4-4-4-4-4-2-2-2-2-2-2-2-2-----------------
D |-5-5-5-5-5-5-5-5-5-5-5-5-5-5-5-5-5-2-2-2-2-2-2-2-2-3-3-3-3-5-5-5-5-
A |-3-3-3-3-3-3-3-3-3-2-2-2-2-2-2-2-2-0-0-0-0-0-0-0-0-3-3-3-3-5-5-5-5-
E |----------------------------------------------------------------1-1-1-1-3-3-3-3-

Interlude:

E |---------------------------------------------------------------
B |---------------------------------------------------------------
G |-5--5-5-5-5-5-5------------------------------------------------
D |-5--5-5-5-5-5-5--2-2-2-2-2-2-2--3-3-3-3-3-3-3--5-5-5-5-5-5-5-5-
A |-3--3-3-3-3-3-3--2-2-2-2-2-2-2--3-3-3-3-3-3-3--5-5-5-5-5-5-5-5-
E |---------------------0-0-0-0-0-0-0--1-1-1-1-1-1-1--3-3-3-3-3-3-3-3-

Then this comes in on top of the above palm muted part:
E |--------------------------------------------------------------------
B |--------------------------------------------------------------------
G |-5--5-5-5-5-5-5--9-9-9-9-9-5-5--10-10-10-10-10-5-5--7-7-7-7-7-7-7-7-
D |-x--x-x-x-x-x-x--x-x-x-x-x-x-x---x--x--x--x--x-x-x--x-x-x-x-x-x-x-x-
A |-3--3-3-3-3-3-3--7-7-7-7-7-3-3---8--8--8--8--8-3-3--5-5-5-5-5-5-5-5-
E |--------------------------------------------------------------------













--------------------------------------------------------------------------------------------------------------------------------------------
Happy Holidays ,You Bastard

------------------------------------------------------------------------------
------------------------------------------------------------------------------
-44444----------------44444------------------------------------------------------
-44444----44444----44444----44444---------------------------------------------
-22222----44444----22222----44444---------------------------------------------
-------------22222---------------22222---------------------------------------------


Pre-chorus
------------------------------------------------------------------------------
------------------------------------------------------------------------------
------------------------------------------------------------------------------
-66666----22222---------------------------------------------------------------
-66666----22222---------------------------------------------------------------
-44444----00000---------------------------------------------------------------


Chorus
------------------------------------------------------------------------------
------------------------------------------------------------------------------
-444--------------------------------------------------------------------------
-444----444----222----4-------------------------------------------------------
-222----444----222----4-------------------------------------------------------
----------222----000----2-------------------------------------------------------


--------------------------------------------------------------------------------------------------------------------------------------------
Story of a lonely guy

*****INTRO*****


E--------------------------------------------------
B-------------------------------------------------- *
G-------------------------------------------------- *
D------7----9-------------7-----9-----7------------ x2 *
A---7-----------------7----------------------------
E--------------------------------------------------

****VERSE****
E--------------------------------------------------
B--------------------------------------------------
G--------------------------------------------------
D---7-7-7-7--9-9-9-9--11-11-11-11--12-12-12-12----- x4
A---7-7-7-7--9-9-9-9--11-11-11-11--12-12-12-12-----
E---5-5-5-5--7-7-7-7---9--9--9--9----10-10-10-10-----


Push it out...
Fake a smile
Avert disaster just in time
I need a drink
Cause in a while
Worthless answers from
Friends of mine
Its dumb to ask
Cool to ignore
Girls posess me but
Theyre never mine
I made my entrance
Avoided hazards
Checked my engine I
fell behind
DA da da....i fell behind


E-------------------------------------------------
B--------------------------------------------------
G--------------------------------------------------
D---7---------7-----7-------7-------7--------7-----
A---7----4-4----4-4----5-5-----5-5-----------------
E---5-----------------------------------5-5--------

Remember when.....
I was in the grocery store....
nows my time
Lost the words..
Lost the nerve
Lost the girl...
Left the line
I would wish..
upon a star
But that star..
It doesnt shine
So read my book..
with the boring ending
A short story of a lonely guy
E--------------------------------------------------
B--------------------------------------------------
G-------------9-9-9-9-------------7-7-7-7----------
D---7-7-7-7---9-9-9-9---4-4-4-4---7-7-7-7----------
A---7-7-7-7---7-7-7-7---4-4-4-4---5-5-5-5----------
E---5-5-5-5-------------2-2-2-2--------------------


She makes me feel like its raining outside
 And when the storms gone
 Im all torn up inside *
 Im always nervous on days like this like the prom
 I get too scared to move cos im a fucking boy


E--------------------------------------------------
B-------------------------------------------------
G-------------------------------------9-9-9-9-9-------
D-------7----- 7-------7-------7 9-9-9-9-9-------X2
A--4-4----4-4----5-5-----5-5----- 7-7-7-7-7-------
E-------------------------------------------------


E--------------------------------------------------
B--------------------------------------------------
G--------------------------------------------------
D-------7-----7------7-----7--------7-----7-----------x2
A---4-4---4-4---5-5---5-5-----7-7---7-7------------
E--------------------------------------------------


--------------------------------------------------------------------------------------------------------------------------------------------
The Rock Show
e-------------------------------------------
B-------------------------------------------
G-------------------------------------------
D--2--0---------2--0----2------------------- x2
A--------4------------4---4--0--------------
E-------------------------------------------






e-------------------------------------------
B-------------------------------------------
G----------------------------77777777--99999999----- x2
D--7777777777777777--77777777--99999999-----
A--7777777777777777--55555555--77777777-----
E--5555555555555555-------------------------

e-------------------------------------------
B-------------------------------------------
G-------------------------------------------
D-------------------------------------------
A--7xxxxxxxxxxxxxxx-------------------------
E--5xxxxxxxxxxxxxxx-------------------------

e--------------------------------------------------------
B--------------------------------------------------------
G--------------------------7----------------9------------
D--7-----------------------7----------------9------------ x 2
A--7-----------------------55xxxxxx---------77xxxxxx-----
E--55xxxxxxxxxxxxxx---------------------------------------

e-------------------------------------------
B-------------------------------------------
G---------------------------77777777--99999999----- x2
D--7777777777777777--77777777--99999999-----
A--7777777777777777--55555555--77777777-----
E--5555555555555555-------------------------

e----------------------------------
B----------------------------------
G==---------------------7777------------
D--77777777--4444--7777------------ x3
A--77777777--4444--5555------------
E--55555555--2222------------------

e------------------------------------------------
B--2-----2-----2-----3-----2-----2-----2-----3---
G-----2-----2-----2-----2-----2-----2-----2----2-
D------------------------------------------------ x2
A------------------------------------------------
E------------------------------------------------

e--------------------------------------
B--------------------------------------
G----------------------------7777777777777777�
D--4444444444444444--7777777777777777�
A--4444444444444444--5555555555555555�
E--2222222222222222--------------------
e--------------------------------------
B--------------------------------------
G----------------------------9999999977777777�
D--7777777777777777--9999999977777777�
A--7777777777777777--7777777755555555�
E--5555555555555555--------------------

Chorus again

Then repeat the Intro thing a bunch of times

--------------------------------------------------------------------------------------------------------------------------------------------
Stay Together for the kids
e------------------|------------------|------------------|-------------------|
B------------------|------------------|------------------|-------------------|
G------------------|------------------|------------------|-------------------|
D----0---7---0-4-0-|----0---7---0-4-0-|----0---4---4-5-4-|----2---4--5-4-2-0-|
A--5---5---5-------|--4---4---4-------|--2---2---2-------|--0---0------------|
E------------------|------------------|------------------|-------------------|

e---------|---------|---------|---------|---------|---------|---------|---------|
B---------|---------|---------|---------|---------|---------|---------|---------|
G-------7-|-------7-|-------7-|-------7-|-------7-|-------7-|-------7-|-------7-|
D-------7-|-------7-|-------7-|-------7-|-------7-|-------7-|-------7-|-------7-|
A--5-5----|--5-5----|--5-5----|--5-5----|---------|---------|---------|---------|
E---------|---------|---------|---------|--7-7----|--7-7----|--7-7----|--7-7----|....


e---------|---------|---------|---------|---------|---------|---------|---------|
B---------|---------|---------|---------|---------|---------|---------|---------|
G-------7-|-------7-|-------7-|-------7-|-------9-|-------9-|-------9-|-------7-|
D-------7-|-------7-|-------7-|-------7-|-------9-|-------9-|-------7-|-------7-|
A--0-0----|--0-0----|--0-0----|--0-0----|--0-0----|--0-0----|--0-0----|--0-0----|x2
E---------|---------|---------|---------|---------|---------|---------|---------|


e------------------------------------------------------------------|
B------------------------------------------------------------------|
G------------------------------------------------------------------|
D-5-5-5-5-5-5-5-5-5-5-5-5-5-5-5-5--4-4-4-4-4-4-4-4-4-4-4-4-4-4-4-4-|
A-5-5-5-5-5-5-5-5-5-5-5-5-5-5-5-5--4-4-4-4-4-4-4-4-4-4-4-4-4-4-4-4-|
E-3-3-3-3-3-3-3-3-3-3-3-3-3-3-3-3--2-2-2-2-2-2-2-2-2-2-2-2-2-2-2-2-|


e------------------|
B------------------|
G---------7-----7---|
D---------7-----7---|
A-5-5-5---5-5---5-|
E------------------|

--------------------------------------------------------------------------------------------------------------------------------------------
Roller Coaster


Intro
------------------------------------------------------
-6---6-7-6--------------------------------------------
---7-------7---7--x2---------------------------------- Distorted
-------------0----------------------------------------
------------------------------------------------------
------------------------------------------------------

Verse Part 1
------------------------------------------------------
------------------------------------------------------
------------------------------------------------------ Clean
----7---x8----7----7----7----7----7----7----7----7----x2
-00--------55---55---55---55-------------55---55------
-------------------------------77---77----------------
On the Second time of playing this don't play the last 5 notes.

Verse Part 2
------------------------------------------------------
------------------------------------------------------
------------------------------------------------------ Distorted
------------------------------------------------------
-4-0-4-5-4-0-0-0------------------x8------------------
-----------------------------------------------------


Verse Part 3
------------------------------------------------------
------------------------------------------------------
-7777--7777--4444--7777---------------77777--444--77777---- Distorted
-7777--7777--4444--7777-x2--777----77777--444--77777----x2
-7777--5555--2222--5555-----777-----55555--222--55555----
-5555-----------------------------555-----------------------

Then Verse Part 2 again only this time play the riff 4 times.
Then play the Verse part 3 riff again.
Then play the Verse part 1 riff.
Then play

------------------------------------------------------
------------------------------------------------------
------------------------------------------------------ Distorted
--------7---------------------------------------------
--------7---------------------------------------------
--------5---------------------------------------------

There is some wieid recording effect going on here but if you slide your hand up and down the fret board it will make a similar sound. Play the chorus again And then the final chorus which is

------------------------------------------------------
------------------------------------------------------
--------------------------77777777--4444--7777---------------- Distorted
7777777777777777--77777777--4444--7777----------------
7777777777777777--55555555--2222--5555----------------
5555555555555555--------------------------------------

Finish the song with the Intro riff.

--------------------------------------------------------------------------------------------------------------------------------------------
Reckless Abandoned

----------------------------------------------------------
----------------------------------------------------------
-4444444444----------------------------------------------- Clean
-4444444444-2222222222222-66666666666-4444444444-2222222�
-2222222222-2222222222222-66666666666-4444444444-2222222�
------------0000000000000-44444444444-2222222222-0000000--

Intro Part 2
------------------------------------------------------
------------------------------------------------------
------------------------------------------------------ Distorted
---1---4--2--x3--1---1--2-----------------------------x2
-----2-------------2------4---------------------------
------------------------------------------------------


Verse
------------------------------------------------------
------------------------------------------------------
-44444444444444444------------------------------------ Distorted
-44444444444444444---44444444444444444444-----x2------
-22222222222222222---44444444444444444444-------------
-------- ---------------------22222222222222222222-------------

Chorus
-------------------------------------------------------------
-------------------------------------------------------------
-----44444444444------------------------------------------------- Distorted
-44444444444-22222222222-666666-444444-22222222222-----------
--22222222222-22222222222-666666-444444-22222222222-----------
--------------------00000000000-444444-222222-00000000000-----------

-------------------------------------------------------------
-------------------------------------------------------------
------------------------------------------------------------- Distorted
--666666-444444--2-------------------------------------------
--666666-444444--2-------------------------------------------
--444444-222222--0-------------------------------------------

Then play intro part 2 again
Then play the verse again
Then play the chorus

------------------------------------------------------
------------------------------------------------------
-4---------------------------------------------------- Clean
-4--2--6--4-------------------------------------------
-2--2--6--4---x4--------------------------------------
-----0--4--2-------------------------------------------

------------------------------------------------------
------------------------------------------------------
-4444444444444444------------------------------------- Clean
-4444444444444444-4444444444444444444------x2-----------
-2222222222222222-4444444444444444444-----------------
--------------------------2222222222222222222----------------1





Play the chorus again and end on
------------------------------------------------------
------------------------------------------------------
-------4----------------------------------------------
-------4----------------------------------------------
-------2----------------------------------------------
------------------------------------------------------


--------------------------------------------------------------------------------------------------------------------------------------------
Give Me One Good Reason

Intro
------------------------------------------------------
------------------------------------------------------
--------1-----1------------------------------------------ Clean
------2-----2---2---4-2---4-2---2----x2------------------
---2-----2-------2-----2-----2--------------------------
------------------------------------------------------

------------------------------------------------------
----1-----1------------------------------------------- Clean
--2-----2---2-----2-4-2-----2-4-2--x2-----------------
4-----4-------0-0-------0-0---------------------------
------------------------------------------------------

On the second time of this riff instead of playing the last few notes play this
-2-2-2-2----------------------------------------------
------------------------------------------------------
------------------------------------------------------ Distorted
------------------------------------------------------
------------------------------------------------------
------------------------------------------------------
..........

Verse
------------------------------------------------------
------------------------------------------------------
------44444----------44444-66666-22222-66666-44444------- Distorted
22222-44444-22222-44444-66666-22222-66666-44444-------
22222-22222-22222-22222-44444-00000-44444-22222-------
00000----------00000-------------------------------------
................................................

Link
------------------------------------------------------
------------------------------------------------------
-----1---4444------------------------------------------ Distorted
222-----4444---1h2-2----x2----------------------------
222-----2222------------------------------------------
000---------------------------------------------------

Play the Verse and The Link Again

Chorus
-------------------------------------------------------------------------
------------------------44444444444444444----------------------------44444444---22222222-- Distorted
222222222222222-44444444444444444-22222222222222222-44444444---22222222--x2
222222222222222-22222222222222222-22222222222222222-22222222---00000000�
000000000000000---------------------------00000000000000000----------------------

Play the intro again
Play the verse again
Play the link again only play it 4 times instead.
Play the chorus again

Solo
--------------------------------------------------------------------
--------------------9-9-9-10-10-10-9-9-----------------------------------
9-9-9-11-11-11--------------------------9-9--9-9-9---------9-9-9---------- Distorted
----------------------------------------------------------9-9-9-9-------9-9-9-9�
--------------------------------------------------------------------
--------------------------------------------------------------------



---------------------------------------------------------------------------------
-------------------9-9-9-10-10-10-9-9------------------------------------------------
9-9-9-11-11-11------------------------9-9-11-11-11-11-11-13-9-11-11-11-11-11-13-9--9- Distorted
---------------------------------------------------------------------------------
---------------------------------------------------------------------------------
---------------------------------------------------------------------------------

Finish With Chorus

--------------------------------------------------------------------------------------------------------------------------------------------
Shut Up
|-------------------------------------------------|
|-------------------------------------------------|
|-----------------------------------------6-6-6-6-7-7-7-7-|
|-7-7-7-7-7-7-7-7-7-7-7-7-7-7-7-7-6-6-6-6-7-7-7-7-|X4
|-----------------7-7-7-7-7-7-7-7-----4-4-4-4-5-5-5-5-|
|-----------------5-5-5-5-5-5-5-5-----------------|






Interlude (clean)
-----0-------0-------0-------0----|
|---0---0---0---0---0---0---0---0--|
|----------------------------------|
|----------------------------------|
|-----------------4-------5--------|
|-5-------5------------------------|
Chorus
|--------------------------------|
|--------------------------------|
|--------------------6-6-6-6-7-7-7-7-|
|7-7-7-7-7-7-7-7-6-6-6-6-7-7-7-7-|
|7-7-7-7-7-7-7-7-4-4-4-4-5-5-5-5-|
|5-5-5-5-5-5-5-5-----------------|
Riff 1
|------------------------------------|------------------------------------------|
|------------------------------------|------------------------------------------|
|------------------------------------|------------------------------------------|
|----7-7-7-7-7-7-7-7-----------7-7-7-7-|X2----------------------------------------|X2
|----5-5-5-5-5-5-5-5-7-7-7-7------|---9-9-9-9-9-9-9-9-12-12-12-12-12-12-12-12|
|------------------------5-5-5-5--------7-7-7-7-7-7-7-7-10-10-10-10-10-10-10-10|

|----------------------------------------|
|----------------------------------------|
|----------------------------------------|
----------------------------------------|(repeat)
|-9-9-9-9-9-9-9-9-11-11-11-11-12-12-12-12|
-7-7-7-7-7-7-7-7--9--9--9--9-10-10-10-10|

|-------------------------------------|
|-------------------------------------|
|-9-9-9-9-9-9-9-9-11-11-11-11-7-7-7-7-|X6
|-9-9-9-9-9-9-9-9-11-11-11-11-7-7-7-7-|
|-7-7-7-7-7-7-7-7--9--9--9--9-5-5-5-5-|
|-------------------------------------|

|---------------------------------------------------------------------------|
|---------------------------------------------------------------------------|
|---------------------------------------------------------------------------|
|-7-7-7-7-7-7-7-7-6-6-6-6-4-4-4-4-11-11-11-11-11-11-11-11-9-9-9-9-7-7-7-7-7-|
|---------------------------------------------------------------------------|
|---------------------------------------------------------------------------|

|---------------------------------------------------------------------------|
|---------------------------------------------------------------------------|
|---------------------------------------------------------------------------|
|-7-7-7-7-7-7-7-6-6-6-6-4-4-4-4-11-11-11-11-11-11-11-11-9-9-9-9-12-12-12-12-|
|---------------------------------------------------------------------------|
|---------------------------------------------------------------------------
Shut the fuck up she said, I�m going fucking deaf you�re always too loud, everything�s too loud,
Now that all my friends left, This place is fucking dead, I want to move out,
When can we move out this shit has gotta stop�.
Guitar interlude #1... I�ll run away Chorus X2.
No guitar Get the fuck up she said, Your life is meaningless , I
t�s going nowhere, You�re going no where, You�re just a fuck-up she said,
I�ll live alone instead, She said you don�t care,
I know I don�t care. Riff #1 I�ll never ask permission from you,
Fuck off I�m not listening to you, I�m not coming home,
I�m never going to come back home, Riff #2
I got to fucked up again and passed out on the bridge I can�t forget you I can�t forget you,
No sleep on this flight, I�ll think about the nights we had do get through,
How did we get through, Riff #1 I�ll never ask permission from you,
Fuck off I�m not listening to you, I�m not coming home,
I�m never going to come back home I�ll run away, Guitar solo
I think it�s time that I should leave I
think it�s time that I should leave
I think It�s time that I should leave I think it�s time that I should....
Instrumental solo Riff #1 I�ll never ask permission from you,
Fuck off I�m not listening to you, I�m not coming home,
I�m never going to come back home,
I�ll run away Chorus (X5) I think it�s time for me to leave,
I think it�s time for me to leave, I think it�s time for me to leave, I think it�s time for me to leave.


--------------------------------------------------------------------------------------------------------------------------------------------
Please Take Me Home
E-----------------------------------
B-----------------------------------
G---8-8-8-8-------------------------
D---9-9-9-9----9-9-9-9--------------X2 (X6)
A---6-6-6-6----9-9-9-9--------------
E----------------7-7-7-7--------------

E-------------------------------------------
B--------------(palm muted)-----------------
G--4-4-4-4---6-6-6-6------------------------ 2nd
D--4-4-4-4---6-6-6-6---6-6-6-6----2-2-2-2---X4
A--2-2-2-2---4-4-4-4---6-6-6-6----2-2-2-2---
E--------------------------4-4-4-4----0-0-0-0---
Oh no it happened again
Shes cool, shes hot, shes my friend
I'd drive for hours its so
You leave me nowhere

Buy hope..Hope that it lasts
Give in...Forget the past
Be strong when things fall apart
Honest....this breaks my heart
Why did we have to go date?
Its too easy to complicate
Be strong when things fall apart
Honest.....this breaks my heart

E-------------------------------|---------------------
B-------------------------------|---------------------
G----------4-4-------------------|---------------------
D--2-2----4-4----6-6----4-4-----|--2)))))))))))))4----
A--2-2----2-2----6-6----4-4-----|--2)))))))))))))4----
E--0-0-------------4-4----2-2-----|--0)))))))))))))2----

E------------------------------------------
B------------------------------------------
G--4-4-4-4--3-3-3-3------------------------
D--4-4-4-4--3-3-3-3--6-6-6-6----2-2-2-2----X2
A--2-2-2-2--1-1-1-1--6-6-6-6----2-2-2-2----
E------------------------4-4-4-4----0-0-0-0----

E--------------------------------------------------
B--------------------------------------------------
G-4------------------------------------------------
D-4-----(4-4---6-6---8-8---9-9)--------------------
A-2-----(2-2---4-4---6-6---7-7)--------------------
E--------------------------------------------------
E--------------------------------------------------
B-----------(palm muted)---------------------------
G---4-4-4-4---6-6-6-6---8-8-8-8---9-9-9-9----------
D---4-4-4-4---6-6-6-6---8-8-8-8---9-9-9-9----------
A---2-2-2-2---4-4-4-4---6-6-6-6---7-7-7-7----------
E--------------------------------------------------

E-----------------------------------
B-----------------------------------
G--444--333--888---666--4---666-----
D----------------------------------- X2
A-----------------------------------
E-----------------------------------

E-----------------------------------
B--88888888888888---444444444444----
G-----------------------------------
D----------------------------------- X2
A-----------------------------------
E-----------------------------------

E------------------------------------------
B------------------------------------------
G--4-4-4-4--3-3-3-3------------------------ 2nd
D--4-4-4-4--3-3-3-3--6-6-6-6----2-2-2-2----X4
A--2-2-2-2--1-1-1-1--6-6-6-6----2-2-2-2----
E------------------------4-4-4-4----0-0-0-0----





E--------------------------------------------------
B--------------------------------------------------
G------4-4-4-4--3-3-3-3----------------------------
D-(4)--4-4-4-4--3-3-3-3--6-6-6-6----2-2-2-2--------X4
A-(4)--2-2-2-2--1-1-1-1--6-6-6-6----2-2-2-2--------
E-(2)-------------------------4-4-4-4----0-0-0-0--------

OptimusPrime

Toegevoegd door OptimusPrime op zo 01 dec, 2002 8:37 am

Auteur: ?
Componist: ?
Uitgever: ?
Taal: Engels

Reacties

CommonCrawl [Bot]

Volg Muzikum