Blink 182

Blink 182
Sex With His Sister (Guitar tab)

artist-blik-182
song-sex with his sister
album-live-mark tom and travis show


-

hole song mostly


[]------------------------------------------------------------------
[]------------------------------------------------------------------
[]------------------------------------------------------------------
[]------------------------------------------------------------------
[]-2-2-2-2-2-2-2-2--6-6-6-6-6-6-6-6--0-0-0-0-0-0-0-0----------------
[]-0-0-0-0-0-0-0-0--4-4-4-4-4-4-4-4--0-0-0-0-0-0-0-0----------------
pm---------------------------------------------------|

he used his dick to pop her
[]-------------------------------------------------------------------
[]-------------------------------------------------------------------
[]-------------------------------------------------------------------
[]--7-7-7--7-7-----5-5-5---5-5----2-2-2---2-2---rest of song---------
[]--7-7-7--7-7-----5-5-5---5-5----2-2-2---2-2------------------------
[]--5-5-5--5-5-----3-3-3---3-3----0-0-0---0-0------------------------
pm-------| ------| -------|

OptimusPrime

Toegevoegd door OptimusPrime op zo 01 dec, 2002 8:37 am

Auteur: ?
Componist: ?
Uitgever: ?
Taal: Engels

Reacties

CommonCrawl [Bot]

Volg Muzikum