Blink 182

Blink 182
Track 38 Ver 2 (Guitar tab)

track 38
mark,tom and travis show
e--------------------------------------------------------------
b--------------------------------------------------------------
g--------------------------------------------------------------
d--------------------------------------------------------------
a--4-----------------------------------------------------------
E--2-----------4-4-4-4-4-4-4-4-6-6-6-6-6-6-6-6-7-7-7-7-7-7-7-7-
I know a guy.. He had sex with his sister....

e------------------------------------------------------------------
b------------------------------------------------------------------
g------------------------------------------------------------------
d------------------------------------------------------------------
a------------------------------------------------------------------
E--2-2-2-2-2-2-2-2-4-4-4-4-4-4-4-4-6-6-6-6-6-6-6-6-7-7-7-7-7-7-7-7-
He used his dick to pop her.. four foot blister

e------------------------------------------------------------------
b------------------------------------------------------------------
g------------------------------------------------------------------
d------------------------------------------------------------------
a------------------------------------------------------------------
E--2-2-2-2-2-2-2-2-4-4-4-4-4-4-4-4-6-6-6-6-6-6-6-6-7-7-7-7-7-7-7-7-
And I know he's not that cool he fucked her in my swimming pool

e----------------------------------------------------
b----------------------------------------------------
g----------------------------------------------------
d--------------------------------------------------9-
a--------------------------------------------------9-
E--2-2-2-2-2-2-2-2-4-4-4-4-4-4-4-4-6-6-6-6-6-6-6-6-7-
He's got three testicles... And He..

e------------------------------------
b------------------------------------
g------------------------------------
d----------------------------------4-
a----------------------------------4-Let Ring
E----------------------------------2-

OptimusPrime

Toegevoegd door OptimusPrime op zo 01 dec, 2002 8:37 am

Auteur: ?
Componist: ?
Uitgever: ?
Taal: Engels

Reacties

CommonCrawl [Bot]

Volg Muzikum