Blink 182

Blink 182
Dammit Live (Guitar tab)

Blink 182: Dammit ( Live )
Tuning (STANDARD)
Tabbed Live By Blink MAn (imhot_10@hotmail.com)
Any comments questions

Intro x4 ((DISTORTION))
e|----------------------------------------------------------
B|----------------------------------------------------------
G|----------------------------------------------------------
D|-------0-0-2------0-0-2-------0-0-2---------2-2-0----
A|--3-3--------------------0-0-------------------------
E|-------------3-3-------------------------1-1------------

Verse {1st part} x2
e|--------------------------------------------------------
B|--------------------------------------------------------
G|--5-55555-------------------------------------------
D|--5-55555--5-55555--2-22222--3-33333--
A|--3-33333--5-55555--2-22222--1-11111---
E|-----------3-33333--0-00000--1-11111---
Palm Mute After First Hit on Each Cord


Verse {2nd part} x2 Different ryhthem
e|----------------------------------------------------------
B|----------------------------------------------------------
G|--5-55-55----------------------------------------------
D|--5-55-55---5-55-55---2-22-22---3-33-33-----
A|--3-33-33---5-55-55---2-22-22---1-11-11-----
E|------------3-33-33---0-00-00---1-11-11-----

Chorus x2
e|----------------------------------------------------------
B|----------------------------------------------------------
G|--55555555------------------------------------------------
D|--55555555--55555555--22222222--33333333
A|--33333333--55555555--22222222--33333333-
E|------------33333333--00000000--11111111

Solo
e|-------------------------------------------------------
B|--5-------3-5-------3-5---3-5-------3-5---------
G|----5---5-----5---5-----5-----5---5--------------
D|------5---------5---------------5-------------------
A|------------------------------------------------------
E|-----------------------------------------------------

ORDER
intro x4
verse {1st part} x2
verse {2nd part} x2
chorus x2
intro x2
verse {1st part} x2
verse {2nd part} x2
chorus x2
solo
intro till end
Guess It's just part of growing up

OptimusPrime

Toegevoegd door OptimusPrime op zo 01 dec, 2002 8:37 am

Auteur: ?
Componist: ?
Uitgever: ?
Taal: Engels

Reacties

CommonCrawl [Bot]

Volg Muzikum