Blink 182

Blink 182
Adams Song Ver 9 (Guitar tab)

Blink 182
Adam's Song
Enema Of The State

tune down one whole step-DGCFAd
(live tom plays this tuned down one step and a half)

e-mail: trecool80@aol.com


Intro (2 times)
d|---------------------------------------------------------------------------|
A|---------------------------------------------------------------------------|
F|---------------------------------------------------------------------------|
C|-----4-0----4-0-----4-0----4-0-----4-0----4-0----4-0----4-0----------------|
G|---2------2-------0------0-------------------------------------------------|
D|---------------------------------3------3------0------3--------------------|

Verse (palm mute clean) (4 times)
d|---------------------------------------------------------------------------|
A|---------------------------------------------------------------------------|
F|---------------------------------------------------------------------------|
C|---44444444----------------------------------------------------------------|
G|---55555555----55555555----99999999----55555555----------------------------|
D|---------------33333333----77777777----33333333----------------------------|

Pre-chorus
d|---------------------------------------------------------------------------|
A|---------------------------------------------------------------------------|
F|------0------0------0------0-----------------------------------------------|
C|----7------7------9------9------4-0----4-0----4-0----4-0-------------------|
G|--5------5------7------7------2------2-------------------------------------|
D|--------------------------------------------3------3-----------------------|

d|---------------------------------------------------------------------------|
A|---------------------------------------------------------------------------|
F|------0------0------0------0-----------------------------------------------|
C|----7------7------9------9------4-0----4-0----2-0----2--0------------------|
G|--5------5------7------7------2------2-------------------------------------|
D|---------------------------------------------3------3----------------------|


Chorus
(clean)
d|---------------------------------------------------------------------------|
A|---------------------------------------------------------------------------|
F|--77777777----99999999----44444444-----------------------------------------|
C|--77777777----99999999----44444444----55555555-----------------------------|
G|--55555555----77777777----22222222----55555555-----------------------------|
D|--------------------------------------33333333-----------------------------|
(clean)
d|---------------------------------------------------------------------------|
A|---------------------------------------------------------------------------|
F|--77777777--99999999--11-11-11-11-11-11-11-11----12-12-12-12-12-12-12-12---|
C|--77777777--99999999--11-11-11-11-11-11-11-11----12-12-12-12-12-12-12-12---|
G|--55555555--77777777---9--9--9--9--9--9--9--9----10-10 10-10-10-10-10-10---|
D|---------------------------------------------------------------------------|
(distortion)
d|---------------------------------------------------------------------------|
A|---------------------------------------------------------------------------|
F|--77777777----99999999----44444444-----------------------------------------|
C|--77777777----99999999----44444444----55555555-----------------------------|
G|--55555555----77777777----22222222----55555555-----------------------------|
D|--------------------------------------33333333-----------------------------|
(distortion)
d|---------------------------------------------------------------------------|
A|---------------------------------------------------------------------------|
F|--77777777----99999999----44444444-----------------------------------------|
C|--77777777----99999999----44444444----55555555-----------------------------|
G|--55555555----77777777----22222222----55555555-----------------------------|
D|--------------------------------------33333333-----------------------------|

Interlude(not piano part, just guitar)

d|---------------------------------------------------------------------------|
A|---------------------------------------------------------------------------|
F|------0--4h5------------------------7--------------------------------------|
C|----4---------a lot of times------0----------------------------------------|
G|--5-----------------------------5------------------------------------------|
D|---------------------------------------------------------------------------|

no one seems to get this song right and by the way i'm disapointed in
blink 182, they said their new cd was gonna be "harder and way more punk rock"
and its not, its just another enema of the state

e-mail: trecool80@aol.com

OptimusPrime

Toegevoegd door OptimusPrime op zo 01 dec, 2002 8:37 am

Auteur: ?
Componist: ?
Uitgever: ?
Taal: Engels

Reacties

CommonCrawl [Bot]

Volg Muzikum