Blink 182

Blink 182
Take Off Your Pants And Jacket Album Part One (Guitar tab)

TAKE OFF YOUR PANTS AND JACKET
BY BLINK 182
TABBED BY KEVIN GRANT
IF YOU HAVE ANY PROBLEMS WITH THE TAB OR ANY
BLINK 182 REQUESTS THEN EMAIL ME AT kingkot1@uk.dreamcast.com

Contents
Anthem part 2
Online Songs
First Date
Happy Hoildays You Bastard
Story Of A Lonely Guy
The Rock Show
Stay Together For The Kids
Roller Coaster
Reckless Abandon
Give Me One Good Reason
Shut Up
Please Take Me Home
What Went Wrong
Time To Break Up
Fuck A Dog

I am sorry that I am not tabing Everytime I Look For You because it is
not in standard tuning and I have still to figure it out.

ANTHEM PART 2

Intro

---3---3---1---1---0---0---1---1----------------------
-----1---1---1---1---1---1---1---1--------------------
------------------------------------------------------ Clean
------------------------------------------------------
------------------------------------------------------
------------------------------------------------------

Intro part 2

------------------------------------------------------
------------------------------------------------------
------------------------------------------------------ Distorted
-----2h3-----2-----2h3-----2-----2h3-----2-----0-----0 X4
-3-3-----3-3---3-3-----3-3---3-3-----3-3---3-3---3-3--
------------------------------------------------------
.. .. .. .. .. .. .. ..
On the fourth time instead of playing the D string open play the A
string on the 3rd fret to make a C note.

Intro part 3

------------------------------------------------------
------------------------------------------------------
--9-10-9-5-7-----9-10-5----5-------------------------- Distorted
--9-10-9-5-7--X3-9-10-5----5--------------------------
--7-8--7-3-5-----7-8--3----3--------------------------
------------------------------------------------------

Verse 1
For a while its just the bass by itself.

------------------------------------------------------
------------------------------------------------------
--555--5---2---3-------------------------------------- Distorted
--555--5---2---3--------------------------------------
--333--3---0---1--------------------------------------
------------------------------------------------------
.........
Interlude

------------------------------------------------------
------------------------------------------------------
------------------------------------------------------ Clean
------------------------------------------------------
-----7------5------3----------------------------------
---5---5--3---3--1------------------------------------

Verse 2 is the same as verse 1
Interlude same as before

Chorus

------------------------------------------------------
------------------------------------------------------
--9--10-5--7-----9--10-5--7-----9--5------------------ Distorted
--9--10-5--7-x2--9--10-5--7-x1--9--5------------------
--7--8--3--5-----7--8--3--5-----7--3------------------
------------------------------------------------------
.......... ..
Then Intro part 3 again
Then Verse 3 sames as 1 and 2
Then the same interlude again
Then the same Chorus again

Middle 8

------------------------------------------------------
------------------------------------------------------
---------------------5-------------------------------- Distorted
---------------------5--------------------------------
---------------------3--------------------------------
------------------------------------------------------
The Middle is mostly the bass but every now and then Tom will strum
to enhance the sound of Travis' crash

Then just play one more Chorus
Then Intro part 2
Then finish with Intro part 1

**********************************************************************

Online Songs

Intro

------------------------------------------------------
------------------------------------------------------
----2-------4-------7-------9------------------------- Clean
--2---2---4---4---7---7---9---9--x1-------------------
0-------2-------5-------7-----------------------------
------------------------------------------------------
This is actually played twice but the second time finish on the A string
Fret 7

Link to Verse

------------------------------------------------------
------------------------------------------------------
-------------------------777-7------------------------ Distorted
-------------------------777-7-7----------------------
-0-2-0-5-2-0-2-0-3-2--x7-555-5-7----------------------
-------------------------------5----------------------

Every Verse in this song has only the bass in it.

After Verse 1 you play the Link again
After Verse 2 its the Chorus

Chorus

------------------------------------------------------
------------------------------------------------------
-- Pick 7777-6666-9999-7777--------------------- Distorted
-- Scratch 7777-6666-9999-7777-x2---------7--------
-- 5555-4444-7777-5555------------7--------
---------------------------------------------5--------

Then Verse 3
Then the same Chorus except do for 4 times don't end on
A instead go straight into the Middle 8, also before you
play E there is a natural stop for one strum.

Middle 8

------------------------------------------------------
------------------------------------------------------
--66-77----9----66666-77777-------99999--------------- Distorted
--66-77-77-9-x2-66666-77777-77777-99999-x2------------
--44-55-77-7----44444-55555-77777-77777---------------
--------55------------------55555---------------------

The final Chorus is the same as the second chorus
end on
------------------------------------------------------
------------------------------------------------------
---------------------2-------------------------------- Distorted
---------------------2--------------------------------
---------------------0--------------------------------
------------------------------------------------------

************************************************************
FIRST DATE

Intro

-0----------------------------------------------------
---1---1---3-1---1---3-1---1---3-1---0----------------
-----0---0-----0---0-----0---0-----0---0-------------- Distorted
------------------------------------------------------
------------------------------------------------------
------------------------------------------------------
Then
-0----------------------------------------------------
---1---1---3-1---1---3-1---1---3-1---0---1------------
-----0---0-----0---0-----0---0-----0---0-------------- Distorted
------------------------------------------------------
------------------------------------------------------
------------------------------------------------------

Verse
For a while there is no guitar only bass

------------------------------------------------------
------------------------------------------------------
-------555-555-555-555-555-555-555-------------------- Distorted
-------555-555-555-555-555-555-555--------------------
-------333-333-333-333-333-333-333--------------------
------------------------------------------------------
...........................

Chorus

------------------------------------------------------
------------------------------------------------------
--555-444--22222-3333-5555---------------------------- Distorted
--555-444--22222-3333-5555--x2------------------------
--333-222--00000-1111-3333----------------------------
------------------------------------------------------
Then
------------------------------------------------------
------------------------------------------------------
--55555-44444-22222-3333-5555------------------------- Distorted
--55555-44444-22222-3333-5555---x2--------------------
--33333-22222-00000-1111-3333-------------------------
------------------------------------------------------

Then play the Intro again
Then play the Verse again
Then play the Chorus again

Middle 8

------------------------------------------------------
------------------------------------------------------
--5555555--------------------------------------------- Distorted
--5555555-2222222-3333333-5555555--x2-----------------
--3333333-2222222-3333333-5555555---------------------
----------0000000-1111111-3333333---------------------
..................................
Then
------------------------------------------------------
------------------------------------------------------
--5555555-999-55-101010-55-7777777-------------------- Distorted
--5555555-999-55-101010-55-7777777--x2----------------
--3333333-777-33-8-8-8--33-5555555--------------------
------------------------------------------------------

Then play the Chorus again and then finish on the Intro.

***************************************************************

HAPPY HOLIDAYS YOU BASTARD

Verse

------------------------------------------------------
------------------------------------------------------
--44444----------------44444-------------------------- Distorted
--44444-44444--Natural-44444-44444--Natural-----------
--22222-44444---Stop---22222-44444---Stop-------------
--------22222----------------22222--------------------

Bridge

------------------------------------------------------
------------------------------------------------------
---------44------------------------------------------- Distorted
-666-222-44-44-2-Natural-444--------------------------
-666-222-22-44-2--Stop---444--------------------------
-444-000----22-0---------222--------------------------

Chorus

------------------------------------------------------
------------------------------------------------------
-444-------------------------------------------------- Distorted
-444-444-22-44--x3------------------------------------
-222-444-22-44----------------------------------------
-----222-00-22----------------------------------------

Verse again
Bridge again
Chorus again

end on
------------------------------------------------------
------------------------------------------------------
---4-------4------------------------------------------ Distorted
---4-------4------------------------------------------
---2-------2------------------------------------------
------------------------------------------------------
***************************************************************
STORY OF A LONELY GUY

Intro

------555--777777777-----555-7777-5555555-------------
--555----------------555------------------------------
------------------------------------------x2---------- Clean
------------------------------------------------------
------------------------------------------------------
------------------------------------------------------

Verse

------------------------------------------------------
------------------------------------------------------
22222222-44444444-66666666-77777777------------------ Distorted
-22222222-44444444-66666666-77777777--x4--------------
-00000000-22222222-44444444-55555555------------------
------------------------------------------------------
...................................

Bridge

------------------------------------------------------
------------------------------------------------------
------------------------------------------------------ Clean
----7-----7------7-----7------7-----7------7----------
-44---444---4-55---555---5--------------77------------
---------------------------55---555---7---------------
Pick Scratch betweem Bridge and Chorus

Chorus

------------------------------------------------------
------------------------------------------------------
22222222-44444444-66666666-77777777------------------ Distorted
-22222222-44444444-66666666-77777777--x4--------------
-00000000-22222222-44444444-55555555------------------
------------------------------------------------------

Then Intro again
Then Verse again
Then bridge again
Then Pick Scratch again
Then Chorus Again

Middle 8

------------------------------------------------------
------------------------------------------------------
------------------------------------------------------ Clean
-----7-----7------7-----7-----------------------------
--44---444---4-55---555---5---------------------------
------------------------------------------------------
Then
------------------------------------------------------
------------------------------------------------------
-------9999999999999999------------------------------- Distorted
-------9999999999999999-------------------------------
-------7777777777777777-------------------------------
------------------------------------------------------
Then
------------------------------------------------------
------------------------------------------------------
------------------------------------------------------ Clean
-----7-----7------7-----7-----------------------------
--44---444---4-55---555---5---------------------------
------------------------------------------------------
Then
------------------------------------------------------
------------------------------------------------------
-------9999999999999999------------------------------- Distorted
-------9999999999999999-------------------------------
-------7777777777777777-------------------------------
------------------------------------------------------
Then
------------------------------------------------------
------------------------------------------------------
------------------------------------------------------ Clean
-----7-----7------7-----7------7-----7-----7-----7----
--44---444---4-55---555---5-77---777---777---777---7--
------------------------------------------------------
Then
------------------------------------------------------
------------------------------------------------------
------------------------------------------------------ Clean
------------------------------------------------------
----7-----7------7-----7------------------------------
-44---444---4-55---555---5----------------------------

Then repeat the Chorus again.
If you are playing with two guitars then the Intro riff
is played in the last Chorus only this time its distorted.
In the last line of the last Chorus stay on the D for a bit
longer and finish on

------------------------------------------------------
------------------------------------------------------
-------2---------------------------------------------- Distorted
-------2----------------------------------------------
-------0----------------------------------------------
------------------------------------------------------

*******************************************************************
THE ROCK SHOW

Intro

------------------------------------------------------
------------------------------------------------------
------------------------------------------------------ Distorted
------------------------------------------------------
--0000-7-00-5-00-4p0-4p0-0000-7-00-5-00-7p0-4p0--x2---
------------------------------------------------------

Link to Verse 1

------------------------------------------------------
------------------------------------------------------
------------------------------------------------------ Distorted
------77777777777777----------------------------------
------77777777777777----------------------------------
------55555555555555----------------------------------
..............

Verse 1

------------------------------------------------------
------------------------------------------------------
----------------------7--777777--9--999999------------ Distorted
--7--77777777777777---7--777777--9--999999------------
--7--77777777777777---5--555555--7--777777------------
--5--55555555555555-----------------------------------
.............. ...... ......

Play Intro again

Verse 2 has no guitar in it but if you feel you must
play then play the same as Verse 1.

Chorus

------------------------------------------------------
------------------------------------------------------
--222---------777------------------------------------- Distorted
--222---444---777-----------x3------------------------
--000---444---555-------------------------------------
--------222-------------------------------------------

Chorus Ending

------------------------------------------------------
------------------------------------------------------
--9999999-7777777-9999999-7777777-9999999-7-6--------- Distorted
--9999999-7777777-9999999-7777777-9999999-7-7---------
--7777777-5555555-7777777-5555555-7777777-5-4---------
------------------------------------------------------
.......................................

Then play the Intro again
Then play the Verse again
Then play the Chorus and Chorus
ending again.

Middle 8

------------------------------------------------------
--2---2---3---2---2---3---2---2---3---2---2---3-------
----2---2---2---2---2---2---2---2---2---2---2---3----- Clean
------------------------------------------------------
------------------------------------------------------
------------------------------------------------------
Then
------------------------------------------------------
------------------------------------------------------
-----------77777777------------9999--7777------------- Distorted
-44444444--77777777--77777777--9999--7777-------------
-44444444--55555555--77777777--7777--5555-------------
-22222222------------55555555-------------------------

Then the Chorus
Then The Chorus Ending
Then play the Intro riff until the song fades out.

****************************************************************
STAY TOGETHER FOR THE KIDS

Intro

-----------------------------------------------------------------
-----------------------------------------------------------------
----------------------------------------------------------------- Clean
---0---7---0-4-0---0---7---0-4-0---0---4---4-5-4---2---4-5-4-2-0-
-5---5---5-------4---4---4-------2---2---2-------0---0-----------
-----------------------------------------------------------------

Verse

------------------------------------------------------------------
------------------------------------------------------------------
------------------------------------------------------------------ Clean
---7---7---7---7---7---7---7---7---7---7---7---7---9---9---7---7-- x2
-5---5---5---5-----------------------------------7---7---7---7----
-----------------7---7---7---7---5---5---5---5--------------------

Chorus

------------------------------------------------------
------------------------------------------------------
------------------------------------------------------ Distorted
-5555555555555555-4444444444444444---x4---------------
-5555555555555555-4444444444444444--------------------
-3333333333333333-2222222222222222--------------------

Then play the Intro and Verse and Chorus again
After the second Chorus play

------------------------------------------------------
------------------------------------------------------
---------------7-------------------------------------- Distorted
---------------7--------------------------------------
---------------5--------------------------------------
------------------------------------------------------

Middle 8

------------------------------------------------------
------------------------------------------------------
------------------------------------------------------ Clean
----7-5-4--5--------7-4-5-0--2------------------------
--5---------------5-----------------------------------
------------------------------------------------------

Then play the Chorus to the end.

****************************************************************
ROLLER COASTER

Intro

------------------------------------------------------
-6---6-7-6--------------------------------------------
---7-------7---7--x2---------------------------------- Distorted
-------------0----------------------------------------
------------------------------------------------------
------------------------------------------------------

Verse Part 1

------------------------------------------------------
------------------------------------------------------
------------------------------------------------------ Clean
----7---x8----7----7----7----7----7----7----7----7----x2
-00--------55---55---55---55-------------55---55------
-------------------------------77---77----------------
On the Second time of playing this don't play the last
5 notes.

Verse Part 2

------------------------------------------------------
------------------------------------------------------
------------------------------------------------------ Distorted
------------------------------------------------------
-4-0-4-5-4-0-0-0------------------x8------------------
------------------------------------------------------

Verse Part 3

------------------------------------------------------
------------------------------------------------------
-------7777--4444--7777----------77777--444--77777---- Distorted
-7777--7777--4444--7777-x2--777--77777--444--77777----x2
-7777--5555--2222--5555-----777--55555--222--55555----
-5555-----------------------555-----------------------

Then Verse Part 2 again only this time play the riff
4 times.
Then play the Verse part 3 riff again.
Then play the Verse part 1 riff.
Then play

------------------------------------------------------
------------------------------------------------------
------------------------------------------------------ Distorted
--------7---------------------------------------------
--------7---------------------------------------------
--------5---------------------------------------------

There is some wieid recording effect going on here but if you
slide your hand up and down the fret board it will make a similar
sound.

Play the chorus again
And then the final chorus which is

------------------------------------------------------
------------------------------------------------------
------------------77777777--4444--7777---------------- Distorted
7777777777777777--77777777--4444--7777----------------
7777777777777777--55555555--2222--5555----------------
5555555555555555--------------------------------------

Finish the song with the Intro riff.

*****************************************************************
RECKLESS ABANDON

Intro

----------------------------------------------------------
----------------------------------------------------------
-4444444444----------------------------------------------- Clean
-4444444444-2222222222222-66666666666-4444444444-2222222--
-2222222222-2222222222222-66666666666-4444444444-2222222--
------------0000000000000-44444444444-2222222222-0000000--

Intro Part 2

------------------------------------------------------
------------------------------------------------------
------------------------------------------------------ Distorted
---1---4--2--x3--1---1--2-----------------------------x2
-----2-------------2------4---------------------------
------------------------------------------------------

Verse

------------------------------------------------------
------------------------------------------------------
-44444444444444444------------------------------------ Distorted
-44444444444444444---44444444444444444444-----x2------
-22222222222222222---44444444444444444444-------------
---------------------22222222222222222222-------------

Chorus

-------------------------------------------------------------
-------------------------------------------------------------
-44444444444------------------------------------------------- Distorted
-44444444444-22222222222-666666-444444-22222222222-----------
-22222222222-22222222222-666666-444444-22222222222-----------
-------------00000000000-444444-222222-00000000000-----------

-------------------------------------------------------------
-------------------------------------------------------------
------------------------------------------------------------- Distorted
--666666-444444--2-------------------------------------------
--666666-444444--2-------------------------------------------
--444444-222222--0-------------------------------------------

Then play intro part 2 again
Then play the verse again
Then play the chorus

Middle 8

------------------------------------------------------
------------------------------------------------------
-4---------------------------------------------------- Clean
-4--2--6--4-------------------------------------------
-2--2--6--4---x4--------------------------------------
----0--4--2-------------------------------------------
Then
------------------------------------------------------
------------------------------------------------------
-4444444444444444------------------------------------- Clean
-4444444444444444-4444444444444444444------x2-----------
-2222222222222222-4444444444444444444-----------------
------------------2222222222222222222----------------1

Play the chorus again
and end on

------------------------------------------------------
------------------------------------------------------
-------4----------------------------------------------
-------4----------------------------------------------
-------2----------------------------------------------
------------------------------------------------------

**********************************************************************
GIVE ME ONE GOOD REASON

Intro

------------------------------------------------------
------------------------------------------------------
-----1-----1------------------------------------------ Clean
---2-----2---2---4-2---4-2---2----x2------------------
-2-----2-------2-----2-----2--------------------------
------------------------------------------------------

------------------------------------------------------
------------------------------------------------------
----1-----1------------------------------------------- Clean
--2-----2---2-----2-4-2-----2-4-2--x2-----------------
4-----4-------0-0-------0-0---------------------------
------------------------------------------------------
On the second time of this riff instead of playing the last few notes
play this

-2-2-2-2----------------------------------------------
------------------------------------------------------
------------------------------------------------------ Distorted
------------------------------------------------------
------------------------------------------------------
------------------------------------------------------
..........

Verse

------------------------------------------------------
------------------------------------------------------
------44444-------44444-66666-22222-66666-44444------- Distorted
22222-44444-22222-44444-66666-22222-66666-44444-------
22222-22222-22222-22222-44444-00000-44444-22222-------
00000-------00000-------------------------------------
................................................

Link

------------------------------------------------------
------------------------------------------------------
-----1--4444------------------------------------------ Distorted
222-----4444---1h2-2----x2----------------------------
222-----2222------------------------------------------
000---------------------------------------------------
... ....

Play the verse and the link again

Chorus

-------------------------------------------------------------------------
-------------------------------------------------------------------------
----------------44444444444444444-------------------44444444---22222222-- Distorted
222222222222222-44444444444444444-22222222222222222-44444444---22222222--x2
222222222222222-22222222222222222-22222222222222222-22222222---00000000--
000000000000000-------------------00000000000000000----------------------

Play the intro again
Play the verse again
Play the link again only play it 4 times instead.
Play the chorus again

Solo

--------------------------------------------------------------------
---------------9-9-9-10-10-10-9-9-----------------------------------
9-9-9-11-11-11--------------------9-9--9-9-9---------9-9-9---------- Distorted
---------------------------------------------9-9-9-9-------9-9-9-9--
--------------------------------------------------------------------
--------------------------------------------------------------------

---------------------------------------------------------------------------------
---------------9-9-9-10-10-10-9-9------------------------------------------------
9-9-9-11-11-11--------------------9-9-11-11-11-11-11-13-9-11-11-11-11-11-13-9--9- Distorted
---------------------------------------------------------------------------------
---------------------------------------------------------------------------------
---------------------------------------------------------------------------------

Finish with the chorus

*********************************************************************************************
SHUT UP

Intro part 1

------------------------------------------------------
------------------------------------------------------
--2-2-2-2--------------------------------------------- Distorted
------------------------------------------------------
------------------------------------------------------
------------------------------------------------------

Intro 2

-----0-------0--------0--------0----------------------
------------------------------------------------------
---2---2---2----2---2----2---2----2--x4--------------- Clean
---------------------------0--------------------------
-0-------0--------4-----------------------------------
------------------------------------------------------

No guitar in the verse
Then play the second intro again
Then another verse with mo guitar

Bridge

------------------------------------------------------
------------------------------------------------------
-777777----------------------------------------------- Distorted
-777777-777777--777777 x2----------------------------
-555555-777777----------------------------------------
--------555555----------------------------------------
Then
------------------------------------------------------
------------------------------------------------------
444444444-7777777777---------------------------------- Distorted
444444444-7777777777--x2------------------------------
222222222-5555555555----------------------------------
------------------------------------------------------

Chorus

------------------------------------------------------
------------------------------------------------------
--------------66666666-77777777----------------------- Distorted
7777777777777-66666666-77777777-x4--------------------
7777777777777-44444444-55555555-----------------------
5555555555555-----------------------------------------

Then play the bridge again.

Middle 8

------------------------------------------------------
------------------------------------------------------
------------------------------------------------------ Clean
-22222222-4444-7777-----------------------------------
-22222222-4444-5555-----------------------------------
------------------------------------------------------
Do this a few times and on the last time at the end bend the 4 fret
on the A string.

Solo

----------------------------------------------------------------------------
----------------------------------------------------------------------------
-------------------66666666-4444-7777--------------------66666666-4444-7777- DIstorted
77777777-6666-4444--------------------77777777-6666-4444--------------------
----------------------------------------------------------------------------
----------------------------------------------------------------------------

Play the bridge again
Play the intro to the end of the song.

*******************************************************************************************

OptimusPrime

Toegevoegd door OptimusPrime op zo 01 dec, 2002 8:37 am

Auteur: ?
Componist: ?
Uitgever: ?
Taal: Engels

Reacties

CommonCrawl [Bot]

Volg Muzikum