Blink 182

Blink 182
Give Me One Good Reason Ver 3 (Guitar tab)

Submitted by: Joe Griffith
Song Title: Give Me One Good Reason
Artist:Blkink 182

This is 100% correct!!!Song Number 11 on Take Off Your Pants&Jacket


Main Riff:

-x-2-2-2-2-2------x-x-x-------------------------------------------
-x-2-2-2-2-2--1---x-x-x-------------------------------------------
-x-2-2-2-2-2------x-x-x-1h2--2------------------------------------
-x-2-2-2-2-2------x-x-x-------------------------------------------
-x-2-2-2-2-2------x-x-x-------------------------------------------
-x-0-0-0-0-0------x-x-x-------------------------------------------


Chorus: All This IS Palm Muted

-2-2-2-2-2---24-24-24-24-24---24-24-24-24-24---46-46-46-46-46---------------------------------------
-2-2-2-2-2---24-24-24-24-24---24-24-24-24-24---46-46-46-46-46---------------------------------------
-2-2-2-2-2---24-24-24-24-24---24-24-24-24-24---46-46-46-46-46---------------------------------------
-2-2-2-2-2---24-24-24-24-24---24-24-24-24-24---46-46-46-46-46--------------------------------------
-2-2-2-2-2---2--2--2--2--2----24-24-24-24-24---46-46-46-46-46---------------------------------
-0-0-0-0-0--------------------2--2--2--2--2----4--4--4--4--4----------

Well thats all playas!!This is a bad ass song so learn it!!Blink 182
Kicks mad ass!!

OptimusPrime

Toegevoegd door OptimusPrime op zo 01 dec, 2002 8:37 am

Auteur: ?
Componist: ?
Uitgever: ?
Taal: Engels

Reacties

CommonCrawl [Bot]

Volg Muzikum