Blink 182

Blink 182
78 People (Guitar tab)

------2----3----7---0
--4-----6-----8------
1----0---------------
---------------------
---------------------
---------------------
there are so many people here!!! how many are here?

chorus:

---------------------
---------------------
---------------------
5-5-5-5-5-5-5-5-5-5-5
4-4-4-4-4-4-4-4-4-4-4
4-4-4-4-4-4-4-4-4-4-4


solo:

---------------------
1-1-1-1-1-1-1-1-1-1-1
2-2-2-2-2-2-2-2-2-2-2
3-3-3-3-3-3-3-3-3-3-3
4-4-4-4-4-4-4-4-4-4-4

OptimusPrime

Toegevoegd door OptimusPrime op zo 01 dec, 2002 8:37 am

Auteur: ?
Componist: ?
Uitgever: ?
Taal: Engels

Reacties

CommonCrawl [Bot]

Volg Muzikum