Blink 182

Blink 182
Online Songs Ver 3 (Guitar tab)

Online Songs
Blink 182
Tabbed by:Andrew(Chocolatestarfish316@triad.rr.com)

Intro: Bass
(Josie your my...)


x2
----------------
----------------
----------------
-2-------2--4--2
---4-0-4---------
----------------
(I'm not sure if this part is right)

-------------------------------
-------------------------------
-------------------------------
-2-------2--4--2---0-0---------
---4-0-4---------4-----44------
-------------------------------

-----------------------
-----------------------
-----------------------
-------2--------7-7-7---
-0-4-0---4-0-5--5-5-5---
-----------------------

Chorus
x2

D5 A5
Please don't remind me, Put your past behind me

E5 D5
it shines so bright it blinds me, wish that this would end,

D5 A5
and I am not fine last night i saw you online,

E5 D5
your screename used to be mine but cant we just pretend


And she said Na NaNa...

(the Chords to that part are:
F#5 D5 A5 E5)
In that order

This is a really easy song, if you cat play it then

OptimusPrime

Toegevoegd door OptimusPrime op zo 01 dec, 2002 8:37 am

Auteur: ?
Componist: ?
Uitgever: ?
Taal: Engels

Reacties

CommonCrawl [Bot]

Volg Muzikum