Blink 182

Blink 182
Dick Lips Ver 2 (Guitar tab)

Song: "Dick Lips"
Artist: Blink 182
Albums: Dude Ranch and The Mark Tom and Travis Show (Live Version)

Riff 1 (Beginning)
D--7-------7-------7-------9--------
A--4-(x??)-5-(x??)-0-(x??)-7-(x??)--

Riff 2 (Verses)
G----------7------9-----------------
D--7-------7-(x8)-9-(x8)------------
A--7-(x16)-5------7-----------------
E--5--------------------------------

Riff 3 (Chorus)
G--6------7-------------9-----------
D--6-(x8)-7-(x8)-7------9-(x8)------
A--4------5------7-(x8)-7-----------
E----------------5------------------

Bridge Part 1
D--7------7------9------------------
A--4-(x8)-5-(x8)-7-(x16)------------

Bridge Part 2
G---------7-6--------7------6-------
D--7------7-6-7------7-(x4)-6-(x4)--
A--7-(x5)-5-4-7-(x5)-5------4-------
E--5----------5---------------------

Bridge Part 3
B--10-------------------------------
G--7-(x??)--------------------------

Order:
Riff 1 (x2)
Riff 2 (x2)
Riff 1 (x2)
Riff 3 (x2)
Riff 1 (x2)
Riff 2 (x2)
Riff 1 (x2)
Riff 3 (x2)
Bridge Part 1 (x2)
Bridge Part 1 (x4)
Bridge Part 3
Riff 3 (x2)

That's the song all 100% correct, the strumming might be off, but

OptimusPrime

Toegevoegd door OptimusPrime op zo 01 dec, 2002 8:37 am

Auteur: ?
Componist: ?
Uitgever: ?
Taal: Engels

Reacties

CommonCrawl [Bot]

Volg Muzikum