Blink 182

Blink 182
M N Ms (Guitar tab)

BLINK 182
M+M's
CHESIRE CAT
TABBED BY ANDREW

In my opinion this is the greatest blink song
to date, I tabbed the live version (it sounds better)

p=pull
h=hammer
s=slide

Intro
----0-4p0-5-0-7-5-4h5-4-0-2p0-4-5-2p0-
--------------------------------------
9-------------------------------------
9-------------------------------------
7-------------------------------------
--------------------------------------

--0-4p0-5-0-7-5-4h5-4-0-2-4-2-4-2p0
-----------------------------------
-----------------------------------
-----------------------------------
-----------------------------------
-----------------------------------

Verse
---------------------------------------
---------------------------------------
---9----9----9----9----9----9----9----9
---------------------------------------
7----7----7----7----9----9----9----9---
---------------------------------------

------------------------------------------
------------------------------------------
----9----9----9----9----9----9----9----9--
-6----6----6----6----7-----7----7----7----
------------------------------------------
------------------------------------------

----------------------
----------------------
-9--------------------
-9--------------------
-7----7-9--7-9-7-6s7--
----------------------

Chorus

-----------
-----------
---------4-
4--7--2--4-
4--7--2--2-
2--5--0----


Brigde
------------
------------
-9-----6----
-9--9--6--7-
-7--9--4--7-
----7-----5-

interlude
----
----
9---
9---
7---
----

outro/verse
------------
------------
----6-------
2-9-6-7-----
2-9-4-7-----
0-7---5-----

(on the cd they just repeat the intro)

I'm 100% sure this is correct, but anyway u can e-mail me at chocolatestarfish316@triad.rr.com

OptimusPrime

Toegevoegd door OptimusPrime op zo 01 dec, 2002 8:37 am

Auteur: ?
Componist: ?
Uitgever: ?
Taal: Engels

Reacties

CommonCrawl [Bot]

Volg Muzikum