Blink 182

Blink 182
All The Small Things Live Ver 3 (Guitar tab)

This is the live version from Saturday Night Live. Artist: Blink-182
Song: All The Small Things
( ) and X = muted


------------------------------------------------------------------------------------X-X-X-X------------
-----------------------------------------5-5-5-5-5-5-5-5------------------------X-X-X-X------------
-----------------------------------------3-3-3-3-3-3-3-3------------------------X-X-X-X------------
---------------------5-5-5-5-5-5-5-5--------------------------------------------X-X-X-X------------
----5----3----------3-3-3-3-3-3-3-3---------------------5-5-5-5-5-5-5-5-5--X-X-X-X--3-3-3---
----3----1--------------------------------------------------3-3-3-3-3-3-3-3-3--X-X-X-X--1-1-1---
Repeat

-------------------------------------
------------------------------------- Hit each 8 times during first verse.
------------------------------------- Repeat four times no mute on the last chord
----(5)------------------------------ on the last time, let it ring out.
----(3)--(5)---(3)---(5)----------- Tom scratches the D string before going into chorus.
----------(3)---(1)---(3)-----------
All The Small Things...

------------------- Hit the first chord 16 times, the rest 8 times.
-------------------
-------------------
----5-------------- -------------------X--X--X--X---- First chord 8 times.
----3--5--3------- -------------------X--X--X--X---- Next two 4 times
-------3--1-------- -------------------X--X--X--X------- Last one before mute hit 9 times
Na Na Na... ---5--10--9--7--X--X--X--X------------
---3---8--7--5--X--X--X--X--3-3-3-------
------------------X--X--X--X--1-1-1---
Go back the first verse riff but only 2 times, let last chord ring out, scratch the D string again before chorus. Let the last chord of the chorus ring, then hit...
---------------------
---------------------
---------------------
---------------------
---3--------5-------
---1--------3-------
Solo
Repeat 4 times.
---------------------------------------------- -------------- Repeat chorus 4 times but mute the
---------------------------------------------- -------------- last set of chords on the last time.
--(5)--(5)--(5)--(5)---(4)---(4)---7--7--- --------------
-----(5)--(5)--(5)--(5)---(5)---(5)--5--5- -(5)----------
---------------------------------------------- -(3)-(3)-(5)-
---------------------------------------------- ------(1)-(3)-

OptimusPrime

Toegevoegd door OptimusPrime op zo 01 dec, 2002 8:37 am

Auteur: ?
Componist: ?
Uitgever: ?
Taal: Engels

Reacties

CommonCrawl [Bot]

Volg Muzikum