Blink 182

Blink 182
Mothers Day Ver 5 (Guitar tab)

Verse
E|------------------------------------------------------------
B|------------------------------------------------------------
G|------------------------------------------------------------
D|------------------------------------------------------------
A|-0-0-0-0----------------------------------------------------
E|-0-0-0-0----------------------------------------------------

Then
--------------------------------------------------------------
--------------------------------------------------------------
--------------------------------------------------------------
--------------------------------------------------------------
-3-3-3-3-2-2-2-2----------------------------------------------
-3-3-3-3-2-2-2-2----------------------------------------------

Chorus: G D C

OptimusPrime

Toegevoegd door OptimusPrime op zo 01 dec, 2002 8:37 am

Auteur: ?
Componist: ?
Uitgever: ?

Reacties

CommonCrawl [Bot]

Volg Muzikum