Blink 182

Blink 182
Time To Break Up Ver 2 (Guitar tab)

E------------------------------------------
A-----4-----2------22--------------------
D-----6-----4------44--------------------
G-----6-----4------44--------------------
B------------------------------------------
E------------------------------------------
During drum thing

Guitar intro:
E---------------------------------------------
A----------3-3----1-1---------3---5--------
D-------------------------4----5----7-------
G-------------------------------5----7-------
B---------------------------------------------
E---------------------------------------------

Verse:
E-------------------------------------------------------
A-----8-----8-----8----8----------6----6----6----6--
D----10----10---10---10---------8----8----8----8--
G----10----10---10---10---------8----8----8----8--
B-------------------------------------------------------
E-------------------------------------------------------
�I guess it�s only the men��

Do this during verses, you can do it one fret up too if you want.

Chorus is just verses strummed more and faster

Last verse:
E------6----6----6----6----6----6----6----6--------5----5----5----5----5----5----5----5--------
A--------8----8----8----8----8-----8---8-----8--------8---8----8-----8---8-----8----8---8------
D------------------------------------------------------------------------------------------------------
G------------------------------------------------------------------------------------------------------
B------------------------------------------------------------------------------------------------------
E------------------------------------------------------------------------------------------------------
�If you want the pain to go away��

That�s it, I think.

OptimusPrime

Toegevoegd door OptimusPrime op zo 01 dec, 2002 8:37 am

Auteur: ?
Componist: ?
Uitgever: ?
Taal: Engels

Reacties

CommonCrawl [Bot]

Volg Muzikum