Blink 182

Blink 182
Stay Together For The Kids Ver 2 (Guitar chord)

Yo to all of you blink fans! I noticed that there aren't any right chords
for this song so i decided to paste my opinion.

Tabbed by K3M|C4L

Blink 182 - Stay Together For The Kids

Intro

E |----------------------------|-----------------------------|
B |----------------------------|-----------------------------|
G |----------------------------|-----------------------------|
D |-----0----7----0----4�--0---|-----0----7-----0-----4--0---|
A |--5----5----5----5----------|--4----4----4-----4----------|
E |----------------------------|-----------------------------|

E |----------------------------|-----------------------------|
B |----------------------------|-----------------------------|
G |----------------------------|-----------------------------|
D |-----0----4----0---5---0----|-----2---4�-5--4--2--0-------|
A |--2----2----2---------------|--0----0---------------------|
E |----------------------------|-----------------------------|

ok now when the guy sings you can play these chords:

E A D G B E
D5 = x.5.7.x.x.x
F#5 = x.4.4.x.x.x 0r x.4.7.x.x.x (Prefer second one myself)
B5 = x.2.4.x.x.x
A = x.0.2.x.x.x

D5 F#5 B5
It's hard to wake up, When the shades have been pulled shut,
A D5
This house haunted it's so pathetic it makes no sense at all...

And so on untill Chorus:

E |----------------------------|-----------------------------|
B |----------------------------|-----------------------------|
G |----------------------------|-----------------------------|
D |---5------------------------|---4-------------------------|
A |---5-(16 times)-------------|---4-(16 times)--------------|
E |---3------------------------|---2-------------------------| (4x)

So Thats it have fun.. And..Blink 182 WhoopAss

OptimusPrime

Toegevoegd door OptimusPrime op zo 01 dec, 2002 8:37 am

Auteur: ?
Componist: ?
Uitgever: ?
Taal: Engels

Reacties

CommonCrawl [Bot]

Volg Muzikum