Blink 182

Blink 182
Mothers Day Ver 3 (Guitar tab)

Author/Artist: Blink 182
Title: Mother's Day
Album: Take Off Your Pants and Jacket
Transcribed by: Roadog
Email: Roadognd99@aol.com

This is 100% accurate. This song is at the end of
the Airplane "Take Off Your Pants and Jacket" Its
Short and Sweet, Just Basic Chords really.
Standard Tuning

------------------------------------------------------------------------------
------------------------------------------------------------------------------
------------------------------------------------------------------------------
-2---2----2---2---2---2---2--2-----5---x4--4---x2-----3-----------------------
-2---2----2---2---2---2---2--2-----5-------4----------3--x1-------------------
-0---0----0---0---0---0---0--0-----3-------2----------1-----------------------
The struming for ^ is down down, 4x,

--3--3----3--3---3--3-----2---2-----------------------------------------------
--4--4----4--4---4--4-----1---1-----------------------------------------------
--------------------------3---3-----------------------------------------------
--2--2----1--1----------------------------------------------------------------
--1--1----2--2---1--1---------------------------------------------------------
-----------------2--2---------------------------------------------------------
Just strum these chords twice, Em, C9, G, D, basic chords (Mothers Day)

OptimusPrime

Toegevoegd door OptimusPrime op zo 01 dec, 2002 8:37 am

Auteur: ?
Componist: ?
Uitgever: ?
Taal: Engels

Reacties

CommonCrawl [Bot]

Volg Muzikum