Blink 182

Blink 182
Carousel Live Ver 2 (Guitar tab)

As Done By Blink 182 Live
Tabbed By Jeremy Antoine
Tunning Standard
(imhot_10@hotmail.com)
---------------------------------------------------------------------
---------------------------------------------------------------------
--------------------------------------------------------------------- 1X
-------------------------------------------4-5-5-5-4-4-4-------------
-12-12-12-10-10-10-9--12-12-12-10-10-10-9----------------5--5-5-5-5--
---------------------------------------------------------------------


--------------------------------------------------------------
--------------------------------------------------------------
--------------------------------------------------------------
------------------------------------4-5-5-5-4-4-4------------- 1X
-10-10-10-9-9-9-7--10-10-10-9-9-9-7---------------5--5-5-5-5--
--------------------------------------------------------------


---------------------------------------------------------------------
---------------------------------------------------------------------
---------------------------------------------------------------------
-------------------------------------------4-5-5-5-4-4-4------------- 1X
-12-12-12-10-10-10-9--12-12-12-10-10-10-9----------------5--5-5-5-5--
---------------------------------------------------------------------


---------------------------------------------------------------------
---------------------------------------------------------------------
--------------------------------------------------------------------- 1X
------------------------------------4-5-5-5-4-4-4--------------------
-10-10-10-9-9-9-7--10-10-10-9-9-9-7---------------5--5-5-5-5----9-10-
---------------------------------------------------------------------

This Was Done By The Bass but I converted to guitar and it sounds
awesome
--------------------------------------------------------------------------
--------------------------------------------------------------------------
-------------------------------------------------------------------------- 2X
----4-4-5-7-5-4-----------------------------------------------------------
--5-------------5-----4-4-5-7-5-4------7-7-9-10-10-9-9----5-5---5---5-----
-------------------5--------------5--7------------------3-----3---3-------
This Part is done kinda fast
----------------------------
----------------------------
---------------------------- 4X
-77777----------------------
-55555--77777--99999--55555-
--------55555--77777--33333-
Distortion
------------------------------------------------
------------------------------------------------
-7--7-7-7-7------------------------------------- 2X
-7--7-7-7-7--7--7-7-7-7--9--9-9-9-9--5--5-5-5-5-
-5--5-5-5-5--7--7-7-7-7--9--9-9-9-9--5--5-5-5-5-
-------------5--5-5-5-5--7--7-7-7-7--3--3-3-3-3-



--------------------
--------------------
-------------------- 2X
-4---2---0-2-0------
---------------4-0--
--------------------


-----------------------------------------------------------
-----------------------------------------------------------
----------------------------------------------------------- 4X
4-4-4-4-4-4-4-4-2-2-2-2-2-2-2-2-4-4-4-4-4-4-4-4-0-2-0------
------------------------------------------------------0-4--
-----------------------------------------------------------


-------------------------------------------------------
-------------------------------------------------------
-7---7-7-7-7------------------------------------------- 4X
-7---7-7-7-7---7---7-7-7-7---9---9-9-9-9---5---5-5-5-5-
-5---5-5-5-5---7---7-7-7-7---9---9-9-9-9---5---5-5-5-5-
---------------5---5-5-5-5---7---7-7-7-7---3---3-3-3-3-


----------------------------------------
----------------------------------------
--7-7-7-7---9-9-9-9--------------------- 4X
--7-7-7-7---9-9-9-9---7-7-7-7---5-5-5-5-
--5-5-5-5---7-7-7-7---7-7-7-7---5-5-5-5-
----------------------5-5-5-5---3-3-3-3-


-----------------------------------------------------------
-----------------------------------------------------------
----------------------------------------------------------- 2X
4-4-4-4-4-4-4-4-2-2-2-2-2-2-2-2-4-4-4-4-4-4-4-4-0-0-2-0----
--------------------------------------------------------4--
-----------------------------------------------------------


-------------------------------------------------------
-------------------------------------------------------
-7---7-7-7-7------------------------------------------- 2X
-7---7-7-7-7---7---7-7-7-7---9---9-9-9-9---5---5-5-5-5-
-5---5-5-5-5---7---7-7-7-7---9---9-9-9-9---5---5-5-5-5-
---------------5---5-5-5-5---7---7-7-7-7---3---3-3-3-3-


------------------------------
------------------------------
------------------------------ 1X
----4-4--4-4-4----------------
-5----------------4-4--4-4-4--
---------------5--------------

--------------------------------------------------------------
--------------------------------------------------------------
-------------------------------------------------------------- 4X
----4-5-7-5-4-------------------------------------------------
--5-----------5----4-5-7-5-4------6-7-9-7-6------2-3-5-3-2----
-----------------5-----------5--7-----------7--3-----------3--


---------------------------------------- ---
---------------------------------------- ---
--7-7-7-7---9-9-9-9--------------------- --- 4X
--7-7-7-7---9-9-9-9---7-7-7-7---5-5-5-5- -7-
--5-5-5-5---7-7-7-7---7-7-7-7---5-5-5-5- -7-
----------------------5-5-5-5---3-3-3-3- -5-

OptimusPrime

Toegevoegd door OptimusPrime op zo 01 dec, 2002 8:37 am

Auteur: ?
Componist: ?
Uitgever: ?
Taal: Engels

Reacties

CommonCrawl [Bot]

Volg Muzikum