Blink 182

Blink 182
Rock Show Live Ver 2 (Guitar tab)

Blink-182- The Rock Show

Intro 1st part- 4X Intro 2nd part right into the verse

e-------------------|
b-------------------|
g-------------------|
d----2--0-----------|
a--0------4--0--2--0|
e-------------------|

Intro 2nd part right into the verse palm mute all
e------------------------------------------
b------------------------------------------
g------------------------------7----------9
d-------------------7-77777777-7-99999999-9
a--7777777777777777-7-55555555-5-77777777-7
e--5555555555555555-5----------------------

e----------------------------------
b----------------------------------
g----------------------7----------9
d-----------7-77777777-7-99999999-9
a--77777777-7-55555555-5-77777777-7
e--55555555-5----------------------

Chorus-

e-------------------------------------------------
b-------------------------------------------------
g--7-7-7-7---9-------------77777777--99999999--7-9
d--7-7-7-7-7-9---77777777--77777777--99999999--7-9
a--5-5-5-5-7-7---77777777--55555555--77777777--5-7
e----------5-----55555555-------------------------
............palm mute.............

Solo thing to the end

e-----------------
b--2---2---2---2--
g----2---2---2---2
d-----------------
a-----------------
e-----------------



Just piece all toghether and its right. Blink-182 may not be as much
punk as they used to be but their good. Plus we still have hope in
Tom and Travis's side project "Boxcar Racer" they say its more punk
than their last records... I hope its punk

OptimusPrime

Toegevoegd door OptimusPrime op zo 01 dec, 2002 8:37 am

Auteur: ?
Componist: ?
Uitgever: ?
Taal: Engels

Reacties

CommonCrawl [Bot]

Volg Muzikum