Blink 182

Blink 182
Girl Next Door Ver 3 (Guitar tab)

===========================================================================
= ***** * * * * * * * ******* ******* =
= * * * * ** * * * * * * * =
= * * * * * * * * * * * * * =
= ***** * * * * * * * * ******* ******* =
= * * * * * * * * * * * * * =
= * * * * * ** * * * * * * =
= ***** ***** * * * * * * ******* ******* =
===========================================================================
= title: the girl next door =
===========================================================================
= album: budha =
===========================================================================
= i put all the strumings and everything in order =
===========================================================================
E---------------------------------------------------------
B---------------------------------------------------------
G---------------4444444444444---------------5555555555555-
D-5555555555555-4444444444444-2222222222222-5555555555555-
A-5555555555555-2222222222222-2222222222222-3333333333333-
E-3333333333333---------------0000000000000---------------

E---------------------------------------------------------
B---------------------------------------------------------
G---------------4444444444444---------------5555555555555-
D-5555555555555-4444444444444-2222222222222-5555555555555-
A-5555555555555-2222222222222-2222222222222-3333333333333-
E-3333333333333---------------0000000000000---------------

E---------------------------------------------------------
B---------------------------------------------------------
G---------------------------------------------------------
D---------------------------------------------------------
A---0-2-3-2-0---0-555555---0-2-3-2-0---0-555555-----------
E-3-----------3----------0-----------3--------------------

E---------------------------------------------------------
B---------------------------------------------------------
G---------------------------------------------------------
D---------------------------------------------------------
A---0-2-3-2-0---0-555555---0-2-3-2-0---0-555555-----------
E-3-----------3----------0-----------3--------------------

E---------------------------------------------------------
B---------------------------------------------------------
G---------------4444444444444---------------5-5-5-5-------
D-5555555555555-4444444444444-2222222222222-5-5-5-5-------White girl living in the big city
A-5555555555555-2222222222222-2222222222222-3-3-3-3-------In a big apartment house
E-3333333333333---------------0000000000000---------------She's living with her boyfriend now

E---------------------------------------------------------
B---------------------------------------------------------
G---------------4444444444444---------------5-5-5-5-------
D-5555555555555-4444444444444-2222222222222-5-5-5-5-------She drives off every day for school and work
A-5555555555555-2222222222222-2222222222222-3-3-3-3-------She washes dishes now
E-3333333333333---------------0000000000000---------------And watches tv on the pull out couch

E---------------------------------------------------------
B---------------------------------------------------------
G--------444444--------5555-------------------------------
D-555555-444444-222222-5555-------------------------------
A-555555-222222-222222-3333-------------------------------but every day's the same
E-333333--------000000------------------------------------but every day's the same

E---------------------------------------------------------
B---------------------------------------------------------
G--------444444--------5555-------------------------------
D-555555-444444-222222-5555-------------------------------
A-555555-222222-222222-3333-------------------------------And every day's the same
E-333333--------000000------------------------------------And every day's the same

E---------------------------------------------------------
B---------------------------------------------------------
G--------444444--------5555-------------------------------
D-555555-444444-222222-5555-------------------------------
A-555555-222222-222222-3333-------------------------------And every day's the same
E-333333--------000000------------------------------------And every day's the same

E---------------------------------------------------------
B---------------------------------------------------------
G--------444444--------5-5-4------------------------------
D-555555-444444-222222-5-5-4------------------------------
A-555555-222222-222222-3-3-2------------------------------
E-333333--------000000------------------------------------And every day's the same

E---------------------------------------------------------
B---------------------------------------------------------
G---------------4444444444444---------------5-5-5-5-------
D-5555555555555-4444444444444-2222222222222-5-5-5-5-------White girl moved back to the suburbs
A-5555555555555-2222222222222-2222222222222-3-3-3-3-------And she finally found a man
E-3333333333333---------------0000000000000---------------Who knows how to take care of her

E---------------------------------------------------------
B---------------------------------------------------------
G---------------4444444444444---------------5-5-5-5-------
D-5555555555555-4444444444444-2222222222222-5-5-5-5-------She bought the perfect little house
A-5555555555555-2222222222222-2222222222222-3-3-3-3-------And the lawn's well manicured
E-3333333333333---------------0000000000000---------------And she'd never missed a day of work

E---------------------------------------------------------
B---------------------------------------------------------
G--------444444--------5555-------------------------------
D-555555-444444-222222-5555-------------------------------
A-555555-222222-222222-3333-------------------------------And every day's the same
E-333333--------000000------------------------------------And every day's the same

E---------------------------------------------------------
B---------------------------------------------------------
G--------444444--------5555-------------------------------
D-555555-444444-222222-5555-------------------------------
A-555555-222222-222222-3333-------------------------------And every day's the same
E-333333--------000000------------------------------------And every day's the same

E---------------------------------------------------------
B---------------------------------------------------------
G--------444444--------5555-------------------------------
D-555555-444444-222222-5555-------------------------------
A-555555-222222-222222-3333-------------------------------And every day's the same
E-333333--------000000------------------------------------And every day's the same

E---------------------------------------------------------
B---------------------------------------------------------
G--------444444--------5-5-4------------------------------
D-555555-444444-222222-5-5-4------------------------------
A-555555-222222-222222-3-3-2------------------------------
E-333333--------000000------------------------------------
E---------------------------------------------------------And every day's the same

E---------------------------------------------------------
B---------------------------------------------------------
G---------------4444444444444---------------5-5-5-5-------
D-5555555555555-4444444444444-2222222222222-5-5-5-5-------White girl couldn't go on knowing
A-5555555555555-2222222222222-2222222222222-3-3-3-3-------She was just here wasting time
E-3333333333333---------------0000000000000---------------She drowned in the lake last night

E---------------------------------------------------------
B---------------------------------------------------------
G---------------4444444444444---------------5-5-5-5-------
D-5555555555555-4444444444444-2222222222222-5-5-5-5-------They found her bloated body floating
A-5555555555555-2222222222222-2222222222222-3-3-3-3-------But she still walks around
E-3333333333333---------------0000000000000---------------Performing all her daily chores

E---------------------------------------------------------
B---------------------------------------------------------
G---------------------------------------------------------
D---------------------------------------------------------
A---0-2-3-2-0---0-555555---0-2-3-2-0---0-555555-----------ohohohohohohohoh ohohohohohohohoh
E-3-----------3----------0-----------3-------------------- She still don't know what life's about

E---------------------------------------------------------
B---------------------------------------------------------
G---------------------------------------------------------
D---------------------------------------------------------
A---0-2-3-2-0---0-555555---0-2-3-2-0---0-555555-----------ohohohohohohohoh ohohohohohohohoh
E-3-----------3----------0-----------3-------------------- She still don't know what life's about

E---------------------------------------------------------
B---------------------------------------------------------
G--------444444--------5555-------------------------------
D-555555-444444-222222-5555-------------------------------
A-555555-222222-222222-3333-------------------------------cause every day's the same
E-333333--------000000------------------------------------And every day's the same

E---------------------------------------------------------
B---------------------------------------------------------
G--------444444--------5555-------------------------------
D-555555-444444-222222-5555-------------------------------
A-555555-222222-222222-3333-------------------------------And every day's the same
E-333333--------000000------------------------------------And every day's the same

E---------------------------------------------------------
B---------------------------------------------------------
G--------444444--------5555-------------------------------
D-555555-444444-222222-5555-------------------------------
A-555555-222222-222222-3333-------------------------------And every day's the same
E-333333--------000000------------------------------------And every day's the same

E---------------------------------------------------------
B---------------------------------------------------------
G--------444444--------5-4--------------------------------
D-555555-444444-222222-5-4-2-5----------------------------
A-555555-222222-222222-3-2-2-5----------------------------
E-333333--------000000-----0-3----------------------------And every day's the same

===========================================================================
= thank you for looking at this tab, this is the only tab and song that i =
= like from blink 182 because its punk well if you have any comments email=
= me @ sk8tercarlos@aol.com or alonelyguy777@aol.com well hope you like =
= this tab -Carlos O. =
===========================================================================

OptimusPrime

Toegevoegd door OptimusPrime op zo 01 dec, 2002 8:37 am

Auteur: ?
Componist: ?
Uitgever: ?
Taal: Engels

Reacties

CommonCrawl [Bot]

Volg Muzikum