Blink 182

Blink 182
Rock Show (Guitar tab)

Title:The Rock Show
Album:Take off your pants and jacket
Tabbed by: Andrew

The intro is probably wrong but it sounds good anyway I'm sort of in a hurry....
Any suggestions e-mail me at ChocolateStarfish316@triad.rr.com

This is an easy song

Intro
---------------------------------------------------
---------------------------------------------------
------------4-4-4-4-9-9-9-9-9-7-7-7-7-7-4-4-4-4----
7-7-7-7-7-7-4-4-4-4-9-9-9-9-9-7-7-7-7-7-4-4-4-4----
7-7-7-7-7-7-6-6-6-6-7-7-7-7-7-5-5-5-5-5-6-6-6-6----
5-5-5-5-5-5----------------------------------------

---------------------------------------------------
---------------------------------------------------
------------4-4-4-4-9-9-9-9-9-7-7-7-7-7-4-4-4-4----
9-9-9-9-9-9-4-4-4-4-9-9-9-9-9-7-7-7-7-7-4-4-4-4----
9-9-9-9-9-9-6-6-6-6-7-7-7-7-7-5-5-5-5-5-6-6-6-6----
7-7-7-7-7-7----------------------------------------

Verse
--------------------------------------------------------
-------------------------------------------------------
--------------------------------------------------------
--7-----------------------------------------------------
--7----------------------------------------------------
--5---------------------------------------------------
hangin out behind the club on the weekend....

--------------------------------------------------------
-------------------------------------------------------
-7----------------------9-------------------------------
-7----------------------9------------------------------
-5----------------------7-----------------------------
--------------------------------------------------------
Acting stupid getting drunk with my best friend...

Chorus
(same as intro)

OptimusPrime

Toegevoegd door OptimusPrime op zo 01 dec, 2002 8:36 am

Auteur: ?
Componist: ?
Uitgever: ?
Taal: Engels

Reacties

CommonCrawl [Bot]

Volg Muzikum