Blink 182

Blink 182
Happy Holidays You Bastard Ver 3 (Guitar tab)

Song- Happy Holidays, You Bastard
Group- Blink 182
Tabbed- Tom Buckholdt buckta2@yahoo.com

1-----------------------------------------------------
2-----------------------------------------------------
3-4--4---4--4---4-------------------------------------
4-4--4---4--4---4---4--4---4--4---6--6---6--6-----2--2
5-2--2---2--2---2---4--4---4--4---6--6---6--6-----2--2
6-------------------2--2---2--2---4--4---4--4-----0--0

1-----------------------------------------------------
2-----------------------------------------------------
3-4---4---------------------------4--4---4------------
4-4---4---4-------------4--4--4---4--4---4--4--4---4--
5-2---2---4-------2-----4--4--4---2--2---2--4--4---4--
6---------2-------0-----2--2--2-----------------------

1--------------------------------------------------------
2--------------------------------------------------------
3------------------------4--4---4------------------------
4------------------------4--4---4---4--4---4------4-4-4--
5--2--2---2--2--2---2----2--2---2---4--4---4---2--4-4-4-2
6--0--0---0--0--0---0---------------2--2---2---0--2-2-2-0

Reapeat this twice

OptimusPrime

Toegevoegd door OptimusPrime op zo 01 dec, 2002 8:36 am

Auteur: ?
Componist: ?
Uitgever: ?
Taal: Engels

Reacties

CommonCrawl [Bot]

Volg Muzikum