Blink 182

Blink 182
Give Me One Good Reason Intro Ver 2 (Guitar tab)

Blink 182 - Give Me One Good Reason Intro : THE RIGHT WAY TO PLAY IT!

|--------------------------------------------------------------|
|--------------------------------------------------------------|
|--------------------------------------------------------------|
|----6-----6-----------6-----6---------------------------------|
|--7-----7-----------7-----7-----------------------------------|
|0-----7-----7-----0-----7-------------------------------------|

x2

|--------------------------------------------------------------|
|--------------------------------------------------------------|
|--------------------------------------------------------------|
|--6---------------6-------------------------------------------|
|----7---7-----------7---7-------------------------------------|
|9-----5---5-----9-----5---------------------------------------|

OptimusPrime

Toegevoegd door OptimusPrime op zo 01 dec, 2002 8:36 am

Auteur: ?
Componist: ?
Uitgever: ?
Taal: Engels

Reacties

CommonCrawl [Bot]

Volg Muzikum