Blink 182

Blink 182
Take Off Your Pants And Jacket Album Part Ver 2 (Guitar tab)

WELCOME TO PART TWO OF THIS GUIDE
TAKE OFF YOUR PANTS AND JACKET ALBUM PART 2
BY BLINK 182
TABBED BY KEVIN GRANT
FOR ANY OF YOU THAT HAVE LOOKED AT PART 1 MAY HAVE SEEN THE TWO MAJOR
MISTAKES,ONE IN ONLINE SONGS AND ONE IN FIRST DATE. DO NOT WORRY
AS I HAVE PUT THE CORRECT TABS FOR THEM IS THIS PART OF THE TAB.

ONLINE SONGS

THE CORRECT LINK TO VERSE

------------------------------------------------------
------------------------------------------------------
-------------------------777-7------------------------ Distorted
-------------------------777-7-7----------------------
-0-4-0-7-4-0-4-0-5-4--x7-555-5-7----------------------
-------------------------------5----------------------
******************************************************************
FIRST DATE

THE CORRECT CHORUS

------------------------------------------------------
------------------------------------------------------
--555-444--22222-------------------------------------- Distorted
--555-444--22222-3333-5555--x2------------------------
--333-222--00000-3333-5555----------------------------
-----------------1111-3333----------------------------
Then
------------------------------------------------------
------------------------------------------------------
--55555-44444-22222----------------------------------- Distorted
--55555-44444-22222-3333-5555---x2--------------------
--33333-22222-00000-3333-5555-------------------------
--------------------1111-3333-------------------------


**************************************************************************



PLEASE TAKE ME HOME

Intro

------------------------------------------------------
------------------------------------------------------
--4s888888888888888888888888s444444------------------- Clean
--4s888888888888888888888888s444444-x2----------------
--2s666666666666666666666666s222222-------------------
------------------------------------------------------

The Verse is the same as the Intro

Bridge

------------------------------------------------------
------------------------------------------------------
-444-------------------------------------------------- Distorted
-444-222-666-444-2-444--7------------------------------
-222-222-666-444-2-444-------------------------------
-----000-444-222-0-222--------------------------------

Chorus

------------------------------------------------------
------------------------------------------------------
-4444444-3333333-------------------------------------- Distorted
-4444444-3333333-6666666-2222222--x2------------------
-2222222-1111111-6666666-2222222----------------------
-----------------4444444-0000000----------------------

Then play the Verse/Intro again
Then play the Bridge again
Then play the Chorus x4

MIddle 8

------------------------------------------------------
------------------------------------------------------
-44-66-88-99------------------------------------------ Clean
-44-66-88-99--------------x4--------------------------
-22-44-66-77------------------------------------------
------------------------------------------------------

------------------------------------------------------
------------------------------------------------------
44444444-66666666-88888888-99999999------------------- Distorted
44444444-66666666-88888888-99999999---------x2--------
22222222-44444444-66666666-77777777---7777------------
------------------------------------------------------
...................................

Solo

------------------------------------------------------
------------------------------------------------------
4444444-3333333-9999999-666-444----------------------- Distorted
4444444-3333333-9999999-666-444--x2-------------------
2222222-1111111-7777777-444-222-----------------------
------------------------------------------------------
Then

------------------------------------------------------
------------------------------------------------------
-4-88888888888888-4444-------------------------------- Distorted
-4-88888888888888-4444---x2---------------------------
-2-66666666666666-2222--------------------------------
------------------------------------------------------

Then play the Chorus
The play this to the end

------------------------------------------------------
------------------------------------------------------
-4-99999999999999-4444-------------------------------- Distorted
-4-99999999999999-4444--------------------------------
-2-77777777777777-2222--------------------------------
------------------------------------------------------
*********************************************************************
WHAT WENT WRONG ( Acoustic )( All Clean )

Intro Part 1

------------------------------------------------------
------------------------------------------------------
------------------------------------------------------
----9--7-----9--7-------------------------------------
-7--------7-------------------------------------------
------------------------------------------------------

Intro Part 2

------------------------------------------------------
------------------------------------------------------
-----------------77777--------------------------------
-77777---44444---77777------x2------------------------
-77777---44444---55555--------------------------------
-55555---22222----------------------------------------

Verse

------------------------------------------------------
------------------------------------------------------
-----------------99999---77777------------------------
-77777---44444---99999---77777----x2------------------
-77777---44444---77777---55555------------------------
-55555---22222----------------------------------------

Chorus

------------------------------------------------------
------------------------------------------------------
-------------------77777------------------------------
-77777-66666-44444-77777--x2--------------------------
-77777-77777-44444-55555------------------------------
-55555-44444-22222------------------------------------

Then play Intro part 1 again then the Verse and Chorus again

Interlude

----0---------------0---------------------------------
------------2----------------2------------------------
--2---2---2---2---2---2----2---2----------------------
------------------------------------------------------
------------------------------------------------------
-2------2-------2-------2-----------------------------

-----0----------------0-------------------------------
--------------2---------------2-----------------------
---2---2----2---2---2---2---2---2---------------------
-0--------0-------0-------0---------------------------
------------------------------------------------------
------------------------------------------------------

----0---------------0---------------------------------
------------2---------------2-------------------------
--2---2---2---2---2---2---2---2-----------------------
------------------------------------------------------
0-------0-------2-------2-----------------------------
------------------------------------------------------

------------------------------------------------------
-----2-----2-----2-----2---22222----------------------
---2-----2-----2-----2-----22222----------------------
-0-----0-----0-----0-------00000----------------------
------------------------------------------------------
------------------------------------------------------

------------------------------------------------------
------------------------------------------------------
-------77777---------------99999-77777----------------
-44444-77777-7777777777----99999-77777----------------
-44444-55555-7777777777-x2-77777-55555----------------
-22222-------5555555555-------------------------------

Then just play the Intro part 2 to the end of the song
If you are playing with two guitars then the first Intro
Riff is in the song a lot more times.

***********************************************************************
TIME TO BREAK UP

Intro

------------------------------------------------------
------------------------------------------------------
------------------------------------------------------ Distorted
-66-44-22-6-6-----------------------------------------
-66-44-22-6-6-----------------------------------------
-44-22-00-4-4-----------------------------------------

Intro Part 2

------------------------------------------------------
------------------------------------------------------
------------------------------------------------------ Distorted
----3-3-1-1----3-3-1-1---3-3-1---4-44--6-6--x2--------
-4----------4--------------------4-44--6-6------------
-----------------------4---------2-22--4-4------------
..

Verse

------------------------------------------------------
----------------------6666----------------------------
6666666666666666------6666-88-1111-------------------- Distorted
6666666666666666-Then-6666-88-1111--x2----------------
4444444444444444------4444-66-9-9---------------------
------------------------------------------------------

Chorus

------------------------------------------------------
------------------------------------------------------
-6666------------------------------------------------- Distorted
-6666-4444-4444-6666----------------------------------
-4444-4444-4444-6666---x2-----------------------------
------2221-2222-4444----------------------------------

Play Intro part 2 again
Play the Verse again
Play the Chorus again

Middle 8

-------------------------------------------------------------------------
-------------------------------------------------------------------------
------------------------------------------------------------------------- Clean
-------------------------------------------------------------------------
---4---4---4---4---4---4---4---4---4---4---4---4---6---6---6---6---x3----
--6---6---6---6---2---2---2---2---4---4---4---4---4---4---4---4----------
Then
-------------------------------------------------------------------------
-------------------------------------------------------------------------
------------------------------------------------------------------------- Clean
-------------------------------------------------------------------------
--4---4---4---4----6---6---6---6----x2-----------------------------------
4---4---4---4----4---4---4---4-------------------------------------------

------------------------------------------------------
------------------------------------------------------
6-6-----6-6------------------------------------------- Distorted
6-6-6-6-6-6-6-6--66-66--------------------------------
4-4-6-6-4-4-6-6--66-66--------------------------------
----4-4-----4-4--44-44--------------------------------

Then play the Chorus
Then this to the end

------------------------------------------------------
------------------------------------------------------
--666666666666---------------------------------------- Distorted
--666666666666-666666666666---------------------------
--444444444444-666666666666---------------------------
---------------444444444444---------------------------

********************************************************************************
FUCK A DOG ( Acoustic ) ( All Clean )

------------------------------------------------------
------------------------------------------------------
---4--------------------------------------------------
-----5---5---5-----7----------------------------------
-5-----5---3---3-5------------------------------------
------------------------------------------------------

And thats it, you have to listern to the song to figure out when to
start and stop.

********************************************************************************

Well thats the end of it, like I said before any requests, problems or comments
then please email me at blink_tom82@hotmail.com

For any one who doesn't know ..... means Palm Muting

I would just like to thank a very big Blink fan Kristen for getting my tab
on a Blink site.

Coming soon The correct versions of

The Mark, Tom and Travis Show
Enema of the State
Dude Ranch
Cheshire Cat
Budda

I haven't decided which one to do next, if you want to request one then email me.
*********************************************************************************

OptimusPrime

Toegevoegd door OptimusPrime op zo 01 dec, 2002 8:36 am

Auteur: ?
Componist: ?
Uitgever: ?
Taal: Engels

Reacties

1 bericht

CommonCrawl [Bot]
Anonymous
zo 04 mei, 2003 5:11 pm
meow
1 bericht • Pagina 1 van 1

Volg Muzikum