Blink 182

Blink 182
Peggy Sue Ver 2 (Guitar tab)

-------------------------------------------------------------------------------
PEGGY SUE-Blink 182
-------------------------------------------------------------------------------

By:Fr�d�ric Hamel http://derfpunk.multimania.com

Guitar 1
e|--0---------------0--------------2-------------0--------------------------------0--|
B|-2-2--2-2-2-2----2-2--2-2-2-2---3-3-3-3-3-3---2-2-2-2-2-2--5-2-5-3--3p2h3p2----2-2-|
G|----------------------------------------------------------------------------2------|
D|-----------------------------------------------------------------------------------|
A|-----------------------------------------------------------------------------------|
E|-----------------------------------------------------------------------------------|

Guitar 2
e|---------------------------------------------------------------------------|
B|---------------------------------------------------------------------------|
G|-----------7-7-7-7-----------9-9--7-7--------------------------------------|
D|--7-7-7-7--7-7-7-7--7-7-7-7--9-9--7-7--7-7-7-7-----------------------------|
A|--7-7-7-7--5-5-5-5--7-7-7-7--7-7--5-5--7-7-7-7-----------------------------|
E|--5-5-5-5-----------5-5-5-5------------5-5-5-5-----------------------------|

e|---------------------------------------------------------------------------|X4
B|---------------------------------------------------------------------------|
G|---------------------------------7-----------------------------------------|
D|-7---------------4---------------7---------------2-4-2---------------------|
A|-7---------------4---------------5--5-5-5-5-5-5--2-4-2---------------------|
E|-5--5-5-5-5-5-5--2--2-2-2-2-2-2------------------0-2-0---------------------|
| p.m | | p.m | | p.m |

e|---------------------------------------------------------------------------|X2
B|---------------------------------------------------------------------------|
G|--7-7-7-7-----------7-7-7-7-------9-9--------------------------------------|
D|--7-7-7-7--7-7-7-7--7-7-7-7--7-7--9-9--------------------------------------|
A|--5-5-5-5--7-7-7-7--5-5-5-5--7-7--7-7--------------------------------------|
E|-----------5-5-5-5-----------5-5-------------------------------------------|

e|---------------------------------------------------------------------------|X4
B|-2-3-5--2-3-5--5-5-5-5--3-3-3-3--------------------------------------------|
G|---------------------------------------------------------------------------|
D|---------------------------------------------------------------------------|
A|---------------------------------------------------------------------------|
E|---------------------------------------------------------------------------|

e|---------------------------------------X2----------------------------------|
B|---------------------------------------------------------------------------|
G|--7-7-7-7-----------7-7-7-7-------9-9--------------------------------------|
D|--7-7-7-7--7-7-7-7--7-7-7-7--7-7--9-9-----7--------------------------------|
A|--5-5-5-5--7-7-7-7--5-5-5-5--7-7--7-7-----7--------------------------------|
E|-----------5-5-5-5-----------5-5----------5--------------------------------|

===============================================================================
Visitez mon site web http://derfpunk.multimania.com

OptimusPrime

Toegevoegd door OptimusPrime op zo 01 dec, 2002 8:36 am

Auteur: ?
Componist: ?
Uitgever: ?

Reacties

CommonCrawl [Bot]

Volg Muzikum