Blink 182

Blink 182
Country Song Ver 3 (Guitar tab)

This song is really easy to play, and it goes a little something like this...


e |-----------------------------------------------------------------|
b |-----------------------------------------------------------------|
g |-----------------------------------------------------------------|
d |---------2--------------2------------2---2---2---2---2---2-------|
a |---0-2-3--------0-2-3----------0-2-3-------3-------3-------3-----|
e |-3------------3--------------3---------3-------3-------3---------|

Thats pretty much the whole song except for the end where there are
bar chords. those go like this

e |---------------------------
b |---------------------------
g |---------------------------
d |-3---5---------------------
a |-3---5---------------------
e |-1---3---------------------


There is also a bass part that begins the song, it goes like this

g |--------------------------------------------------|
d |--------------------------------------------------|
a |-3---3---3---3------------------------------------|
e |---3---3---3---3--6--9----------------------------|

OptimusPrime

Toegevoegd door OptimusPrime op zo 01 dec, 2002 8:36 am

Auteur: ?
Componist: ?
Uitgever: ?
Taal: Engels

Reacties

CommonCrawl [Bot]

Volg Muzikum