Blink 182

Blink 182
Adams Song Ver 8 (Guitar tab)

Artist: Blink 182
Title: Adam's Song
Album: Enema Of State
Transcribed by: Kyle Butler
Email: MaynardIG@aol.com

Ive seen a lot of in-correct tabs for this song
so heres the correct way to play Adams Song

first amp settings this is very improtant and no one ever includes them.

For the clean guitar have the Bass at 10, Mid at about 5 and the Treble
at 10 and the volume at whatever you want(its also good to have a little
Chours and a little Reverb).

For the Distorted guitar just crank everything up Bass, Mid, Treble, and
Gain all to 10 no Reverb or Chours volume at whatever but it needs to be
louder than the clean guitar.

One last thing this is tabbed for one guitar since even though theres two
on the record i always try and play the songs like the artist would live
since blink only has one guitar player its for one guitar.

Tuning:
D=E
A=B
F=G
C=D
G=A
D=E


Intro
E------------------------------------------------------------------------------
B------------------------------------------------------------------------------
G------------------------------------------------------------------------------
D-----4--0------4--0-----4--0-----4--0-----4--0------4--0-----4--0-----4--0----
A--2---------2--------0--------0-----------------------------------------------
E---------------------------------------3--------3---------0--------3----------

Verse
E------------------------------------------------------------------------------
B------------------------------------------------------------------------------
G--5-5-5-5-5-5-5-5-------------------------------------------------------------
D--5-5-5-5-5-5-5-5--5-5-5-5-5-5-5-5--9-9-9-9-9-9-9-9--5-5-5-5-5-5-5-5----------
A--3-3-3-3-3-3-3-3--5-5-5-5-5-5-5-5--9-9-9-9-9-9-9-9--5-5-5-5-5-5-5-5----------
E-------------------3-3-3-3-3-3-3-3--7-7-7-7-7-7-7-7--3-3-3-3-3-3-3-3----------

Interlude
E------------------------------------------------------------------------------
B------------------------------------------------------------------------------
G------2--0-----2--0-----4--0-----4--0-----------------------------------------
D---0--------0--------2--------2------------4--0------4--0-------4--0-----4--0-
A----------------------------------------2---------2---------------------------
E-------------------------------------------------------------3---------3------


E------------------------------------------------------------------------------
B------------------------------------------------------------------------------
G--7-7-7-7-7-7-7-7-\-9-9-9-9-9-9-9-9-------------------------------------------
D--x-x-x-x-x-x-x-x---x-x-x-x-x-x-x-x--9-9-9-9-9-9-9-9-\-5-5-5-5-5-5-5-5--------
A--5-5-5-5-5-5-5-5-\-7-7-7-7-7-7-7-7--x-x-x-x-x-x-x-x---x-x-x-x-x-x-x-x--------
E-------------------------------------7-7-7-7-7-7-7-7-\-3-3-3-3-3-3-3-3--------


Breakdown (listen to get the beat)
E------------------------------------------------------------------------------
B------------------------------------------------------------------------------
G------5----5----5----5--------------------------------------------------------
D----5----5----5----5----------------------------------------------------------
A------------------------------------------------------------------------------
E------------------------------------------------------------------------------


E------------------------------------------------------------------------------
B------------------------------------------------------------------------------
G--7-7-7-7-7-7-7-7-\-9-9-9-9-9-9-9-9-------------------------------------------
D--7-7-7-7-7-7-7-7---9-9-9-9-9-9-9-9--9-9-9-9-9-9-9-9-\-5-5-5-5-5-5-5-5--------
A--5-5-5-5-5-5-5-5-\-7-7-7-7-7-7-7-7--9-9-9-9-9-9-9-9---5-5-5-5-5-5-5-5--------
E-------------------------------------7-7-7-7-7-7-7-7-\-3-3-3-3-3-3-3-3--------

last time
E------------------------------------------------------------------------------
B------------------------------------------------------------------------------
G--7-7-7-7-7-7-7-7-\-9-9-9-9-9-9-9-9---------------------------------------7----
D--7-7-7-7-7-7-7-7---9-9-9-9-9-9-9-9--9-9-9-9-9-9-9-9-\-5-5-5-5-5-5-5-5----7----
A--5-5-5-5-5-5-5-5-\-7-7-7-7-7-7-7-7--9-9-9-9-9-9-9-9---5-5-5-5-5-5-5-5----5----
E-------------------------------------7-7-7-7-7-7-7-7-\-3-3-3-3-3-3-3-3--------

End.

OptimusPrime

Toegevoegd door OptimusPrime op zo 01 dec, 2002 8:36 am

Auteur: ?
Componist: ?
Uitgever: ?
Taal: Engels

Reacties

1 bericht

CommonCrawl [Bot]
Reaper88
di 29 jul, 2003 11:09 am
good good but isn't the verse palm muted?? other than that really good make more blink tabs
1 bericht • Pagina 1 van 1

Volg Muzikum