Blink 182

Blink 182
All The Small Things Ver 5 (Guitar tab)

Tabbed by rob

I'e actually seen them play it like this twice in concert, (front row)
and on Leno, and SNL

Intro
E|------------
B|------------
G|------------
D|-5-3--------
A|-5-3--------
E|-3-1--------

Next intro thing play twice
E|------------------------------------------------
B|----------66666666------------------------------
G|-55555555-55555555------------------------------
D|-55555555-33333333-55555555-xxxx-333------------
A|-33333333----------55555555-xxxx-333------------
E|-------------------33333333-xxxx-111------------

Verse (plam mute) play 4 times
E|------------------------------------------------
B|------------------------------------------------
G|-55555555---------------------------------------
D|-55555555-55555555-33333333-55555555------------
A|-33333333-55555555-33333333-55555555------------
E|----------33333333-11111111-33333333------------

Chorus
E|------------------------------------------------
B|------------------------------------------------
G|-(5)5--------------5----------------------------
D|-(5)5--------------5----------------------------
A|-(3)3--------------3----------------------------
E|--------(play above note semi-plam muted on "go")

After Chorus (na-na-na part) play twice
E|------------------------------------------------
B|------------------------------------------------
G|-555555555555555--------------------------------
D|-555555555555555-55555555-33333333--------------
A|-333333333333333-55555555-33333333--------------
E|-----------------33333333-11111111--------------


E|------------------------------------------------
B|------------------------------------------------
G|-55555555-10101010-9999-777777777---------------
D|-55555555-xxxxxxxx-xxxx-777777777-xxxx-333------
A|-33333333-8 8 8 8 -7777-555555555-xxxx-333------
E|----------------------------------xxxx-111------

Verse (plam mute) play twice
E|------------------------------------------------
B|------------------------------------------------
G|-55555555---------------------------------------
D|-55555555-55555555-33333333-55555555------------
A|-33333333-55555555-33333333-55555555------------
E|----------33333333-11111111-33333333------------


Chorus
E|------------------------------------------------
B|------------------------------------------------
G|-(5)5--------------5----------------------------
D|-(5)5--------------5----------------------------
A|-(3)3--------------3----------------------------
E|--------(play above note semi-plam muted on "go")

After Chorus (na-na-na part) play twice
E|------------------------------------------------
B|------------------------------------------------
G|-555555555555555--------------------------------
D|-555555555555555-55555555-33333333--------------
A|-333333333333333-55555555-33333333--------------
E|-----------------33333333-11111111--------------

Interlude (PLAM MUTED)
E|----------------------------------------------------------
B|--------------------3-3----(CHORDS HEAVY PALM-MUTED)------
G|-5------5-5-5-5-4-4-----------------------55555555-7777777
D|-5--3----5-5-5-5-5-5-5-5--555555555555555-55555555-5555555
A|-3--3---|--repeat 4X----|-555555555555555-33333333-5555555
E|----1---------------------333333333333333-----------------

OUTRO
E|------------------------------------------------
B|------------------------------------------------
G|-555555555555555--------------------------------
D|-555555555555555-55555555-33333333--------------
A|-333333333333333-55555555-33333333--------------
E|-----------------33333333-11111111--------------

E|------------------------------------------------
B|------------------------------------------------
G|-555555555555555--------------------------------
D|-555555555555555-55555555-33333333--------------
A|-333333333333333-55555555-33333333--------------
E|-----------------33333333-11111111--------------

E|------------------------------------------------
B|------------------------------------------------
G|-555555555555555--------------------------------
D|-555555555555555-55555555-xx-3-xx-3-------------
A|-333333333333333-55555555-xx-3-xx-3-------------
E|-----------------33333333-xx-1-xx-1-------------


E|------------------------------------------------
B|------------------------------------------------
G|-555555555555555------------------------------5-
D|-555555555555555-55555555-xx-3-xx-3-xx-3-xx-3-5-
A|-333333333333333-55555555-xx-3-xx-3-xx-3-xx-3-3-
E|-----------------33333333-xx-1-xx-1-xx-1-xx-1---


that's it. it's right. just play it. e-mail me with comments:
Znat4hq@aol.com

Blink 182 Albums:
Flyswatter
Buddha (#1)
Buddha (#2)
Chesire Cat
Dude Ranch
Enema Of The State
Enema Strikes Back (Mark, Tom, & Travis show)

OptimusPrime

Toegevoegd door OptimusPrime op zo 01 dec, 2002 8:36 am

Auteur: ?
Componist: ?
Uitgever: ?
Taal: Engels

Reacties

CommonCrawl [Bot]

Volg Muzikum