Blink 182

Blink 182
What Went Wrong Ver 5 (Guitar tab)

Blink 182
Take off your Pants and Jacket
Bonus track 14 - What went Wrong

This is my New Favorite song and it sounds so great on an acoustic.
This was tabbed in Drop d

Intro PreVerse
:-------------::-------------------------------------------:
:----0--------::-------------------------------------------:
:------2------::--2---2-2---2---2-2------------------------:
:--2----------::--2---2-2---2---2-2---4---4-4---0---0-0----:
:-------------::--0---0-0---0---0-0---4---4-4---0---0-0----:
:-------------::----------------------4---4-4---0---0-0----:

Verse:
:--------------------------------------:
:--------------------------------------:
:--2------------------9----------7-----:
:--2--------4---------9----------7-----:
:--0--------4---------7----------5-----:
:-----------4--------------------------:
I’m Sick… Hearing… Sad Songs… Radio

Chorus:
:--------------------------------------:
:--------------------------------------:
:--2-----------------------------------:
:--2----4-------0---------2------------:
:--0----4-------0---------2------------:
:-------4-------0---------2------------:
I…Forgive…Forget…Give In…
Wrong……Said………Right…………Fucked

Then go back into perverse, rinse and repeat

¤~Kristy~¤

OptimusPrime

Toegevoegd door OptimusPrime op zo 01 dec, 2002 8:36 am

Auteur: ?
Componist: ?
Uitgever: ?
Taal: Engels

Reacties

CommonCrawl [Bot]

Volg Muzikum