Blink 182

Blink 182
Grandpa (Guitar tab)

Artist: Blink 182
Song: "Grandpa", the second hidden track on the green cd.
Album: Take off Your Pants and Jacket, green version

Tabbed by: Howie Saubert, probly@netscape.net

play it nice and slow, about 80 bpm...
fingerpick it on an acoustic too

"verse":
when you fucked grandpa.....
E :2---0---2---0---|------------------|
B :--3---3---3---3-|3---3-/5-2---2-/3-|
G :----------------|--0--------2------|
D :0---0---0---0---|---------0--------|
A :----------------|0-----------------|
E :----------------|------------------|

"chorus":
he seems like a total ass hole....
E :2---2---2---2---|-----------------|
B :--3---3---3---3-|3---3---3---3----|
G :----------------|--0---0---0---0--| X 3 , and at the end of the third
D :0---0---0---0---|-----------------| time play.....
A :----------------|0---0---0---0----|
E :----------------|-----------------|

in his ass........... he rubs his dick in broken glass.
E :----------------|
B :2---2---2---2---|
G :--2---2---2---2-|
D :0---0---0---0---|
A :----------------|

OptimusPrime

Toegevoegd door OptimusPrime op zo 01 dec, 2002 8:36 am

Auteur: ?
Componist: ?
Uitgever: ?
Taal: Engels

Reacties

CommonCrawl [Bot]

Volg Muzikum