Blink 182

Blink 182
Anthem Part 2 Ver 3 (Guitar tab)

Author/Artist: Blink 182
Title: anthem part 2
Album: take of your pants and jacket
Email: blader195@hotmail.com

If anything wrong email me.

------------------------------------------------------------------------------
------------------------------------------------------------------------------
----------------------------------------------X4--------------------------------
------------------------------------------------------------------------------
--1--1---1---1---1---1----1---1-------------------------------------------------
-3--3--1---1---0---0----1---1---------------------------------------------------
Beginning of the song

------------------------------------------------------------------------------
-3-3-----3-3-----3-3------3-3-5-3-3-5-----------------------------------------
-----0-2-----0-2-----0-2------------------x3------------------------------------
------------------------------------------------------------------------------
------------------------------------------------------------------------------
------------------------------------------------------------------------------
Palm mute until the part of 335 335.
The 2nd part of the song
------------------------------------------------------------------------------
-7--8--7--3--5-------------------7--8--3--------------------------------------
-*--*--*--*--*---X3--------------*--*--*---x1-----------------------------------
-9--10-9--5--7-------------------9--10-5--------------------------------------
------------------------------------------------------------------------------
------------------------------------------------------------------------------

The chorus of the song
--------------------------5-5-5-5----1-1-1-1----------------------------------
-3333---3-3-3-3-3-3-3-3---7-7-7-7----3-3-3-3----------------------------------
-****---5-5-5-5-5-5-5-5---7-7-7-7--- 3-3-3-3-----x4-----------------------------
-5555---5-5-5-5-5-5-5-5-------------------------------------------------------
------------------------------------------------------------------------------
------------------------------------------------------------------------------
Pm??????
The main part in the song of the words
----------------------3-3-----------------------------------------------------
-7-7-7-7---3-3-3-3----5-5---3-3--5-5------------------------------------------
-9-9-9-9---5-5-5-5----5-5---5-5--7-7------------------------------------------
-9-9-9-9---5-5-5-5----------5-5--7-7------x2------------------------------------
------------------------------------------------------------------------------
------------------------------------------------------------------------------
This is the pre-part before the chorus

--------------------3-3-------------------------------------------------------
-7-7-7-7---3-3-3-3--5-5--3-3--5-5-----------------------7-7-7-7----7----------
-9-9-9-9---5-5-5-5--5-5--5-5--7-7------x1---------------9-9-9-9----9?x1--------
-9-9-9-9---5-5-5-5-------5-5--7-7-----------------------9-9-9-9----9----------
------------------------------------------------------------------------------
------------------------------------------------------------------------------
Pm???????????
This is still part of the pre-chorus except palm muted
------------------------------------------------------------------------------
-7--8--7--3--5---------------7--8--3------------------------------------------
-*--*--*--*--*---X3----------*--*--*--x1----------------------------------------
-9--10-9--5--7---------------9--10-5------------------------------------------
------------------------------------------------------------------------------
------------------------------------------------------------------------------
This is the chorus

---------------------------5-5-5-5----1-1-1-1----------------------------------
-3333---3-3-3-3-3-3-3-3----7-7-7-7----3-3-3-3----------------------------------
-****---5-5-5-5-5-5-5-5----7-7-7-7----3-3-3-3-----------------------------------
-5555---5-5-5-5-5-5-5-5--------------------------------------------x-2----------
------------------------------------------------------------------------------
------------------------------------------------------------------------------
Pm????????
Again the main part of singing
--------------------3-3-------------------------------------------------------
-7-7-7-7---3-3-3-3--5-5--3-3--5-5---------------------------------------------
-9-9-9-9---5-5-5-5--5-5--5-5--7-7--------x2-------------------------------------
-9-9-9-9---5-5-5-5-------5-5--7-7---------------------------------------------
------------------------------------------------------------------------------
------------------------------------------------------------------------------

The pre chorus again
-------------------3-3--------------------------------------------------------
-7-7-7-7--3-3-3-3--5-5--3-3--5-5----------7-7-7-7---7-------------------------
-9-9-9-9--5-5-5-5--5-5--5-5--7-7?x1-------9-9-9-9---9?x1-----------------------
-9-9-9-9--5-5-5-5-------5-5--7-7----------9-9-9-9---9-------------------------
------------------------------------------------------------------------------
------------------------------------------------------------------------------
Pm?????
Pre chorus except palm muted


NOTE: (after it says everything has fallen to pieces numerous times go back the pre chorus and play it and now after the pre chorus the 3rd time go and play the piece under this note.


------------------------------------------------------------------------------
-3-3-----3-3-----3-3------3-3-5-3-3-5-----------------------------------------
-----0-2-----0-2-----0-2--------------------x3----------------------------------
------------------------------------------------------------------------------
------------------------------------------------------------------------------
------------------------------------------------------------------------------
Palm mute it until the 335 335 part

------------------------------------------------------------------------------
--3-3-----3-3-----3-3---------------------------------------------------------
------0-2-----0-2----0-2------------------------------------------------------
---------------------------------X1---------------------------------------------
------------------------------------------------------------------------------
------------------------------------------------------------------------------
Palm mute this and let the last note ring out

OptimusPrime

Toegevoegd door OptimusPrime op zo 01 dec, 2002 8:36 am

Auteur: ?
Componist: ?
Uitgever: ?
Taal: Engels

Reacties

CommonCrawl [Bot]

Volg Muzikum