Blink 182

Blink 182
Carousel Ver 2 (Guitar tab)

----------------------------------------------------------------------
----------------------------------------------------------------------
-7------------------------------------------------4-------------------
-7-457540-------------7---------------------------412421------55555---
-5--------------------7457540---------------------2-----2-----55555---
----------------------5---------------------------------------33333--
Intro:above


----------------------------------------------------------------------
----------------------------------------------------------------------
-11---9----11-----------------------------------------------------------
-0x4--7x4---9x4-------------------------------------------------------
----------------------------------------------------------------------
----------------------------------------------------------------------
Thats the the first part the verse is all power chords!

OptimusPrime

Toegevoegd door OptimusPrime op zo 01 dec, 2002 8:36 am

Auteur: ?
Componist: ?
Uitgever: ?
Taal: Engels

Reacties

CommonCrawl [Bot]

Volg Muzikum