Blink 182

Blink 182
Roller Coaster Ver 5 (Guitar tab)

Blink 182 - Roller Coaster
Album - Take off your pants and jacket

Tabbed by Josh Kuai
caelumhades@hotmail.com


-------------------------------------
-------------------------------------
6---6-7-6---------6---6-7-6----------
--7-------7----7-----7-------7---7---
------------0------------------0-----
-------------------------------------

Then through verse, do the following. I just put what to do,
listen to figure out how many times you do it. Use the lryics.

----------------------------------------------------
----------------------------------------------------
----------------------------------------------------
----7-----7-----7-----7-----7-----7------4------7----
0-0---0-0---0-0---0-0---5-5---5-5----2-2----5-5------
----------------------------------------------------
Breathing deeply... Finding... Call.. Ask...


------------------------------------------
------------------------------------------
6-----6-7-6-------------------------------
6-----6-7-6------------------------------- x4 (on 3rd time hit the 2)
4--0--4-5-4-0-0-0-0-0-0--(2)--------------
------------------------------------------


-----------------------------------------
-----------------------------------------
-------------7------------4----------7---
7------------7------------4----------7---
7------------5------------2----------5---
5----------------------------------------
Leave me... Standing... Act... I'm not...

OptimusPrime

Toegevoegd door OptimusPrime op zo 01 dec, 2002 8:36 am

Auteur: ?
Componist: ?
Uitgever: ?
Taal: Engels

Reacties

CommonCrawl [Bot]

Volg Muzikum