Blink 182

Blink 182
Roller Coaster Ver 3 (Guitar tab)

Blink-182
Rollercoaster (toypaj)
Chris
Teenage08dirtbag@aol.com (address)
INTRO/ENDING (#1)

e------------------------------------------------------------------
---2---2-3-2-----------------------------------------------------------
-----2-------2-2----(x2)---------------------------------------------------
-------------------------------------------------------------------
-------------------------------------------------------------------
E------------------------------------------------------------------

This next one is mainly bass, but I do this part anyway cos i don't got a bass
so...
(#2)
e------------------------------------------------------------------
-------------------------------------------------------------------
-------------------------------------------------------------------
-------------------------------------------------------------------
-----5---5-----------------------------------------------------------
E--5---7--------------------------------------------------------------

Listen to the CD to get the number and rythem cos i can't count how much times
u do that (#3)

e---------------------------------------------------------------------
----------------------------------------------------------------------
----------------------------------------------------------------------
----------------------------------------------------------------------
--4---4-5-4---------------------------------------------------------------
E---5-------5-5--(12times)---------------------------------------------------

Verse/Chorus (#4)

e---------------------------------------------------------------------
----------------------------------------------------------------------
------7-----7-----------------------------------------------------------
--7---7--9--7-------------------------------------------------------------
--7---5--9--5---(x4)----------------------------------------------------------
E-5------7--------------------------------------------------------------

Order-
#1
#2
#3
#4
#3
#4
#2
#4
#1

OptimusPrime

Toegevoegd door OptimusPrime op zo 01 dec, 2002 8:36 am

Auteur: ?
Componist: ?
Uitgever: ?
Taal: Engels

Reacties

CommonCrawl [Bot]

Volg Muzikum