Blink 182

Blink 182
Aliens Exist Ver 5 (Guitar tab)

Intro:
|P.M...........................| Let Ring........................
|------------------------------------------------------------------|
|------------------------------------------------------------------|
|------------------------------------------------------------------|
|-5-5-5-5-5-5-5-5-7-7-7-7-8-8-8-8-11-------------------------------|
|-5-5-5-5-5-5-5-5-7-7-7-7-8-8-8-8-11-------------------------------|
|-3-3-3-3-3-3-3-3-5-5-5-5-6-6-6-6-9--------------------------------|
Hey mom......

|---------|
|---------|
|---------|
|--pick---|
|-slide---|
|-\-\-\---|

Verse: (all is palm-muted) play 2 times
|------------------------------------------------------------------|
|------------------------------------------------------------------|
|-4-4-4-4----------------------------------------------------------|
|-4-4-4-4-2-2-2-2-6-6-6-6-2-2-2-2----------------------------------|
|-2-2-2-2-2-2-2-2-6-6-6-6-2-2-2-2----------------------------------|
|---------0-0-0-0-4-4-4-4-0-0-0-0----------------------------------|

What if people knew........ play 2 times
|------------------------------------------------------------------|
|------------------------------------------------------------------|
|-4-4-4-4----------------------------------------------------------|
|-4-4-4-4-4-4-4-4-6-6-6-6-2-2-2-2----------------------------------|
|-2-2-2-2-4-4-4-4-6-6-6-6-2-2-2-2----------------------------------|
|---------2-2-2-2-4-4-4-4-0-0-0-0----------------------------------|

know the CIA would say......... play 2 times
|------------------------------------------------------------------|
|------------------------------------------------------------------|
|-4-4-4-4-6-6-6-6--------------------------------------------------|
|-4-4-4-4-6-6-6-6-6-6-6-6-2-2-2-2----------------------------------|
|-2-2-2-2-4-4-4-4-6-6-6-6-2-2-2-2----------------------------------|
|-----------------4-4-4-4-0-0-0-0----------------------------------|

Chorus:
Up all night long.......
|------------------------------------------------------------------|
|------------------------------------------------------------------|
|-4---4-4-4-4-------------4---4-4-4-4------------------------------|
|-4---4-4-4-4-4---4-4-4-4-4---4-4-4-4-4---4-4-4-4------------------|
|-2---2-2-2-2-4---4-4-4-4-2---2-2-2-2-4---4-4-4-4------------------|
|-------------2---2-2-2-2-------------2---2-2-2-2------------------|

(plam mute) And I know it must be late.....
|------------------------------------------------------------------|
|------------------------------------------------------------------|
|-------------99-99-99-99-------------99-99-99-99------------------|
|-66-66-66-66-99-99-99-99-66-66-66-66-99-99-99-99------------------|
|-66-66-66-66-77-77-77-77-66-66-66-66-77-77-77-77------------------|
|-44-44-44-44-------------44-44-44-44------------------------------|

I'm not like you guys.......
|------------------------------------------------------------------|
|------------------------------------------------------------------|
|-----------------4------------------------------------------------|
|-4---4-4-2---2-2-4-------4---4-4-2--------------------------------|
|-4---4-4-2---2-2-2-------4---4-4-2--------------------------------|
|-2---2-2-0---0-0---------2---2-2-0--------------------------------|

(play 2 times)
|------------------------------------------------------------------|
|------------------------------------------------------------------|
|-4-4-4-4----------------------------------------------------------|
|-4-4-4-4-2-2-2-2-6-6-6-6-2-2-2-2----------------------------------|
|-2-2-2-2-2-2-2-2-6-6-6-6-2-2-2-2----------------------------------|
|---------0-0-0-0-4-4-4-4-0-0-0-0----------------------------------|

I'am still a skeptic yes you know me..... (play 2 times)
|------------------------------------------------------------------|
|------------------------------------------------------------------|
|-4-4-4-4----------------------------------------------------------|
|-4-4-4-4-4-4-4-4-6-6-6-6-2-2-2-2----------------------------------|
|-2-2-2-2-4-4-4-4-6-6-6-6-2-2-2-2----------------------------------|
|---------2-2-2-2-4-4-4-4-0-0-0-0----------------------------------|

I got an injection....... (play 2 times)
|------------------------------------------------------------------|
|------------------------------------------------------------------|
|-4-4-4-4-6-6-6-6--------------------------------------------------|
|-4-4-4-4-6-6-6-6-6-6-6-6-2-2-2-2----------------------------------|
|-2-2-2-2-4-4-4-4-6-6-6-6-2-2-2-2----------------------------------|
|-----------------4-4-4-4-0-0-0-0----------------------------------|

|------------------------------------------------------------------|
|------------------------------------------------------------------|
|-4-4-4-4-6-6-6-6--------------------------------------------------|
|-4-4-4-4-6-6-6-6-6-6-6-6-2----------------------------------------|
|-2-2-2-2-4-4-4-4-6-6-6-6-2----------------------------------------|
|-----------------4-4-4-4-0----------------------------------------|

Up all night long.......
|------------------------------------------------------------------|
|------------------------------------------------------------------|
|-4---4-4-4-4-------------4---4-4-4-4------------------------------|
|-4---4-4-4-4-4---4-4-4-4-4---4-4-4-4-4---4-4-4-4------------------|
|-2---2-2-2-2-4---4-4-4-4-2---2-2-2-2-4---4-4-4-4------------------|
|-------------2---2-2-2-2-------------2---2-2-2-2------------------|

And I know it must be late.....
|------------------------------------------------------------------|
|------------------------------------------------------------------|
|------------------------------------------------------------------|
|-66-66-66-66-99-99-99-99-66-66-66-66-99-99-99-99------------------|
|-66-66-66-66-77-77-77-77-66-66-66-66-77-77-77-77------------------|
|-44-44-44-44-------------44-44-44-44------------------------------|

I'm not like you guys.......
|------------------------------------------------------------------|
|------------------------------------------------------------------|
|-----------------4------------------------------------------------|
|-4---4-4-2---2-2-4-------4---4-4-2--------------------------------|
|-4---4-4-2---2-2-2-------4---4-4-2--------------------------------|
|-2---2-2-0---0-0---------2---2-2-0--------------------------------|

Bridge:
Guitar 1
|------------------------------------------------------------------|
|------------------------------------------------------------------|
|------------------------------------------------------------------|
|------------------------------------------------------------------|
|-2-2-2-2-2-2-2-2-2-2-2-2-2-2-2-2-2-2-2-2-2-2-2-2-2-2--------------|
|------------------------------------------------------------------|

Guitar 2
|---------------------------------0-0-0-0-0-0-0-0-0----------------|
|-4-4-4-4-4-4-4-4-4-2-2-2-2-2-2-2------------------4-4-4-4-4-4-4---|
|------------------------------------------------------------------|
|------------------------------------------------------------------|
|------------------------------------------------------------------|
|------------------------------------------------------------------|

Dark and scary, ordinary
|--------------------------------------------------------------------------------|
|--------------------------------------------------------------------------------|
|-------------------------4-4-4-4-6-6-6-6-------------------------4-4-4-4-6-6-6-6|
|-6-6-6-6-4-4-4-4-2-2-2-2-4-4-4-4-6-6-6-6-6-6-6-6-4-4-4-4-2-2-2-2-4-4-4-4-6-6-6-6|
|-6-6-6-6-4-4-4-4-2-2-2-2-2-2-2-2-4-4-4-4-6-6-6-6-4-4-4-4-2-2-2-2-2-2-2-2-4-4-4-4|
|-4-4-4-4-2-2-2-2-0-0-0-0-----------------4-4-4-4-2-2-2-2-0-0-0-0----------------|

Up all night long.......
|------------------------------------------------------------------|
|------------------------------------------------------------------|
|-4---4-4-4-4-------------4---4-4-4-4------------------------------|
|-4---4-4-4-4-4---4-4-4-4-4---4-4-4-4-4---4-4-4-4------------------|
|-2---2-2-2-2-4---4-4-4-4-2---2-2-2-2-4---4-4-4-4------------------|
|-------------2---2-2-2-2-------------2---2-2-2-2------------------|

And I know it must be late..... (palm mute)
|------------------------------------------------------------------|
|------------------------------------------------------------------|
|-------------99-99-99-99-------------99-99-99-99------------------|
|-66-66-66-66-99-99-99-99-66-66-66-66-99-99-99-99------------------|
|-66-66-66-66-77-77-77-77-66-66-66-66-77-77-77-77------------------|
|-44-44-44-44-------------44-44-44-44------------------------------|

I'm not like you guys.......
|------------------------------------------------------------------|
|------------------------------------------------------------------|
|-----------------4-----------------------4------------------------|
|-4---4-4-2---2-2-4-------4---4-4-2---2-2-4------------------------|
|-4---4-4-2---2-2-2-------4---4-4-2---2-2-2------------------------|

OptimusPrime

Toegevoegd door OptimusPrime op zo 01 dec, 2002 8:36 am

Auteur: ?
Componist: ?
Uitgever: ?
Taal: Engels

Reacties

CommonCrawl [Bot]

Volg Muzikum