Blink 182

Blink 182
Touchdown Boy Intro (Guitar tab)

tabbed by: rstoner85

this intro is 100% correct.

part 1
e----------------------------------------------------
B----------------------------------------------------
G--9-9-9-9--9-9-9-8-8-8-4-4-4-4-4-4-4----------------
D--9-9-9-9--9-9-9-8-8-8-4-4-4-4-4-4-4--7-7-7-6-6-6-2-
A--7-7-7-7--7-7-7-6-6-6-2-2-2-2-2-2-2--7-7-7-6-6-6-2-
E--------------------------------------5-5-5-4-4-4-0-

part 2
G-----------9-9-9-8-8-8-4-4-4-4-4-4-4----------------
D--2-2-2-2--9-9-9-8-8-8-4-4-4-4-4-4-4--7-7-7-6-6-6-2-
A--2-2-2-2--7-7-7-6-6-6-2-2-2-2-2-2-2--7-7-7-6-6-6-2-
E--0-0-0-0-----------------------------5-5-5-4-4-4-0-

OptimusPrime

Toegevoegd door OptimusPrime op zo 01 dec, 2002 8:35 am

Auteur: ?
Componist: ?
Uitgever: ?
Taal: Engels

Reacties

CommonCrawl [Bot]

Volg Muzikum